>
 >
Skeksis

Skeksis Guitar Tabs

Strapping Young Lad - Skeksis chords, tabs, tablatures, lyrics

Guitar lessons | Add/correct | Request | Top 50 tabs Artists:  A B C D E F G H I J K L M N O P Q R S T U V W X Y Z 0-9

Skeksis Guitar Tabs – Strapping Young Lad

CD, Sheet music, Poster

Do you like Skeksis? Share with your friends now
Tabs

SKEKSIS
As recorded by Strapping Young Lad
(From the 2005 Album ALIEN)
Note: Listen to record for exact rhythm

Posted by Iron Pete
 Words by Devin Townsend Music by Strapping Young Lad

AII
2 x x x x x x Gopen
0 x x x x x x BbIII
3 x x x x x x


Gtr I (G C G C G C E) - 'Gtr 1'
Gtr II (G C G C G C E) - 'Gtr 2'
Gtr III (G C G C G C E) - 'Lead Left'
Gtr IV (G C G C G C E) - 'Lead Right'


   Intro 1
    Q=114
    C5              N.C.
   4/4
    Gtrs I, II
    PM-------------------------------------------------
    S S S S +S  E S  S   S   S   S   S   S   S   S   3x
||---------------------------------------------------||
||---------------------------------------------------||
||o-------------------------------------------------o||
||--x-x-x-x-(x)-x-x--x---x---x---x---x---x---x---x---||
||o-0-0-0-0-(0)-0-0---------o||
||--0-0-0-0-(0)-0-0--x---x---x---x---x---x---x---x---||
||---------------------------------------------------||


  C5                N.C.
 ---------------------------|      PM-----|
  S S S S +S  S S S  S   e   S  S  S   S   S
|----------------------------------------------|
|----------------------------------------------|
|----------------------------------------------|
|-x-x-x-x-(x)-x-x-x--x---x---x-----x---x---x---|
|-0-0-0-0-(0)-0-0-0----------|
|-0-0-0-0-(0)-0-0-0--x---x---x-----x---x---x---|
|----------------------------------------------|


    C5              N.C.
    PM-------------------------------------------------
    S S S S +S  E S  S   S   S   S   S   S   S   S   3x
||---------------------------------------------------||
||---------------------------------------------------||
||o-------------------------------------------------o||
||--x-x-x-x-(x)-x-x--x---x---x---x---x---x---x---x---||
||o-0-0-0-0-(0)-0-0---------o||
||--0-0-0-0-(0)-0-0--x---x---x---x---x---x---x---x---||
||---------------------------------------------------||


  C5                N.C.
 ---------------------------|      PM-----|
  S S S S +S  S S S  S   e   S  S  S   S   S
|---------------------------------------------|
|---------------------------------------------|
|---------------------------------------------|
|-x-x-x-x-(x)-x-x-x--x---x---x-----x---x---x--|
|-0-0-0-0-(0)-0-0-0---------|
|-0-0-0-0-(0)-0-0-0--x---x---x-----x---x---x--|
|---------------------------------------------|


    Eb5 DbC5                            Eb5 DbC5
    PM--------------------------------------------------------|   PM------|
                                                        |-3-|     |-3-----|
   S S S S S S S S S S S S S S S S  3x S S S S S S S S S S S S S S S S S S
||----------------------------------||---------------------------------------|
||----------------------------------||---------------------------------------|
||o--------------------------------o||---------------------------------------|
||----------------------------------||---------------------------------------|
||o3-3-1-0---0---0-0-0-0-0-0-0-0-0-o||-3-3-1-0---0---0-0-0-0-0---0-0-0-0-----|
||-3-3-1-0---0---0-0-0-0-0-0-0-0-0--||-3-3-1-0---0---0-0-0-0-0---0-0-0-0-----|
||-3-3-1-0---0---0-0-0-0-0-0-0-0-0--||-3-3-1-0---0---0-0-0-0-0---0-0-0-0-----|


    Eb5 DbC5      G5                  N.C.
    PM----------|
    S S S S S S E S S S S S S S S  3x S E S +S  E S S S S S S S S S
||---------------------------------||-------------------------------|
||----------------7-7-7-7-7-7-7-7--||-------------------------------|
||o---------------7-7-7-7-7-7-7-7-o||-------------------------------|
||----------------7-7-7-7-7-7-7-7--||-------------------------------|
||o-3-3-1-0---0-------------------o||-------------------------------|
||--3-3-1-0---0--------------------||-------------------------------|
||--3-3-1-0---0--------------------||-1S2-2-(2)-2-2-2h3-3-3-3h4-4-4-|


   Intro 2
    Q=115
    N.C.
    S S S S +S  E S S S S S S S S S  4x
||-----------------------------------||-|
||-----------------------------------||-|
||o---------------------------------o||-|
||-----------------------------------||-|
||o---------------------------------o||-|
||-----------------------------------||-|
||--4h5-5-5-(5)-5-5-4h5-5-5-4h5-5-5--||-|


    S S S S     +S  E S S S S S S S S S
||----------------------------------------||
||----------------------------------------||
||o--------------------------------------o||
||----------------------------------------||
||o--------------------------------------o||
||----------------------------------------||
||--6-6-6-6b6.5-(6)-5-5-4h5-5-5-4h5-5-5---||


 S S S S     +S  E S S S S S S S S S   S S S S     +S  E S S S S S S S S S
|-----------------------------------|--------------------------------------|
|-----------------------------------|--------------------------------------|
|-----------------------------------|--------------------------------------|
|-----------------------------------|--------------------------------------|
|-----------------------------------|--------------------------------------|
|-----4b4.5-(4)---------------------|-------4b4.5-(4)----------------------|
|-6-5-5-----------5-5-4h5-5-5-4h5-5-5-|-6-5-5-----------5-5-4h5-5-5-4h5-5-5|


    N.C.
    PM--------|                         PM--------|
    |----6----|                         |----6----|
    S S S S S S S E S S S S S S S S S   S S S S S S S E S S S S S S S S S
||------------------------------------|-----------------------------------|
||------------------------------------|-----------------------------------|
||o-----------------------------------|-----------------------------------|
||------------------------------------|-----------------------------------|
||o-----------------------------------|-----------------------------------|
||------------------------------------|-----------------------------------|
||--8-8-7-7-6-6-5-5-5-4h5-5-5-4h5-5-5-|-8-8-7-7-6-6-5-5-5-4h5-5-5-4h5-5-5-|


                                         1.
 PM--------|
 |----6----|
 S S S S S S S  E +S   S S S S S S S S   S S S S S S S S S S S S S S S S
|--------------------------------------|-------------------------------------|
|--------------------------------------|-------------------------------------|
|--------------------------------------|---------------------------------o---|
|--------------------------------------|-------------------------------------|
|--------------------------------------|---------------------------------o---|
|--------------/7-(7)-----------------|--------------------------------------|
|8-8-7-7-6-6-5---------4h5-5-5-4h5-5-5-|-4h5-5-5-4h5-5-5-4h5-5-5-4h5-5-5-----|


  2.
                    C5              C5              C
  PM--------|       PM----------|
  |----6------------------------|
  S S S S S S S E S S e S S E S     S S S S +S  E S S S S S S S S S   3x
|-------------------------------||------------------0-0-0-0-0-0-0-0---||
|-------------------------------||------------------0-0-0-0-0-0-0-0---||
|-------------------------------||o-----------------0-0-0-0-0-0-0-0--o||
|-------------------x-x-x-x-x-x-||--0-0-0-0-(0)-0-0-0-0-0-0-0-0-0-0---||
|-------------------0-0-0-0-0-0-||o-0-0-0-0-(0)-0-0-0-0-0-0-0-0-0-0--o||
|-------------------0-0-0-0-0-0-||--0-0-0-0-(0)-0-0-0-0-0-0-0-0-0-0---||
|-8-8-7-7-6-6-5-5-5-------------||------------------------------------||


  C5              Gmaj7sus4/C N.C.                  Gmaj7sus4/C N.C.
  S S S S +S  E S S S S S S S E     a E S S +S  E S S S S S S S E
|-----------------2-2-2-2-2-2---||------------------2-2-2-2-2-2----||
|-----------------0-0-0-0-0-0---||------------------0-0-0-0-0-0----||
|-----------------0-0-0-0-0-0---||o-----------------0-0-0-0-0-0---o||
|-0-0-0-0-(0)-0-0-0-0-0-0-0-0---||------------------0-0-0-0-0-0----||
|-0-0-0-0-(0)-0-0-0-0-0-0-0-0---||o-----------------0-0-0-0-0-0---o||
|-0-0-0-0-(0)-0-0-0-0-0-0-0-0---||------------------0-0-0-0-0-0----||
|-----------------------------1-||--4s5-5-5-(5)-5-5-------------1--||


                  Gmaj7sus4/C N.C.                Gmaj7sus4/C
  a E S S +S  E S S S S S S S  E   E  S S +S  E S S S S S Q
|-----------------2-2-2-2-2-2----|----------------2-2-2-2-------|
|-----------------0-0-0-0-0-0----|----------------0-0-0-0-------|
|-----------------0-0-0-0-0-0----|----------------0-0-0-0-------|
|-----------------0-0-0-0-0-0----|----------------0-0-0-0-------|
|-----------------0-0-0-0-0-0----|----------------0-0-0-0-------|
|-----------------0-0-0-0-0-0-/4-|-4-0-0-(0)-0-0-0-0-0-0-7------|
|-4s5-5-5-(5)-5-5----------------|------------------------------|


  N.C.
 7/8                     4/4
  S S S S E S S S S E E   S S S S E S S S S E E E
|-----------------------|-------------------------|
|-----------------------|-------------------------|
|-----------------------|-------------------------|
|-----------------------|-------------------------|
|-----------------------|-------------------------|
|---------2---------2-0-|---------2---------2-5-4-|
|-0-0-3-3---0-0-3-3-----|-0-0-3-3---0-0-3-3-------|


 7/8                     9/8
                      PM
  S S S S E S S S S E E   S S S S E S S T T S E E E   E
|-----------------------|---------------------------------|
|-----------------------|---------------------------------|
|-----------------------|---------------------------------|
|-----------------------|---------------------------------|
|-----------------------|---------------------------------|
|---------2---------2---|---------2-----------2-5-5b6-5b7-|
|-0-0-3-3---0-0-3-3---0-|-0-0-3-3---0-0-3-3-3-------------|


  (C)
 4/4
  |----6----| |----6----|
  S S S S S S S S S S S S Q  Q    S S S S +S  E S Q  Q
|-------------------------0--0--|-----------------0--0--|
|-------------------------0--0--|-----------------0--0--|
|-------------------------0--0--|-----------------0--0--|
|-------------------------0--0--|-----------------0--0--|
|-------------------------------|-----------------------|
|-0-0-0-0-0-0-0-0-0-0-0-0-------|-0-0-0-0-(0)-0-0-------|
|-------------------------------|-----------------------|


                       PM
  S S S S +S  E S Q  E E   S S S S +S  E S Q  Q
|-----------------0--0---|-----------------0--------|
|-----------------0--0---|-----------------0--------|
|-----------------0--0---|-----------------0--------|
|-----------------0--0---|-----------------0--------|
|------------------------|--------------------------|
|-0-0-0-0-(0)-0-0--------|-0-0-0-0-(0)-0-0----7-----|
|----------------------0-|--------------------------|


  Eb5/Bb
                  PM--------|
  S E S +S  E S E S S S S S S
|-----------------------------|
|-----------------------------|
|-3-3-3-(3)-3-3-3-------------|
|-3-3-3-(3)-3-3-3-------------|
|-3-3-3-(3)-3-3-3-3-3-3-3-3-3-|
|-----------------3-3-3-3-3-3-|
|-----------------3-3-3-3-3-3-|


                  PM--------|                    PM
  S E S +S  E S E S S +S  S E   S E S +S  E S Q  Q
|-----------------------------|----------------------|
|-----------------------------|----------------------|
|-3-3-3-(3)-3-3-3-------------|-3-3-3-(3)-3-3-3------|
|-3-3-3-(3)-3-3-3-------------|-3-3-3-(3)-3-3-3------|
|-3-3-3-(3)-3-3-3-3-3-(3)-3-3-|-3-3-3-(3)-3-3-3--3---|
|-----------------3-3-(3)-3-3-|------------------3---|
|-----------------3-3-(3)-3-3-|------------------3---|


  Eb5/Bb              F5/C       AII
                                 Gtr II
  W                              E   Q.       E   Q.
                                 |            |
                                 /            /

  Gtrs I, II                     Gtr I
                                 |--3---| |3| |--3---| |-3-|
  S E S +S  E S E S S S S S S    E E    E E Q E E    E E E E
|-----------------------------||-----------------------------|
|-----------------------------||-----------------------------|
|-3-3-3-(3)-3-3-3-3-3-5-5-5-5-||-----------------------------|
|-3-3-3-(3)-3-3-3-3-3-5-5-5-5-||-----------------------------|
|-3-3-3-(3)-3-3-3-3-3-5-5-5-5-||--------2-4-6--------2-4-6-4-|
|-----------------------------||---4------------4------------|
|-----------------------------||-2------------2--------------|


  E   Q.         E   Q.
  |              |
  /              /

  |--3---| |-3-| |--3---| |-3-|
  E E    E E E E E E    E E E E
|---------------------------------|
|---------------------------------|
|---------------------------------|
|--------------4------------------|
|--------2-4-6----------2-4-6-4---|
|---4--------------4--------------|
|-2--------------2----------------|


                                          Gopen
  E   Q.     E   Q.           Q     Q     S S   S   S S S   S   S
  |          |                |           | |   |   | | |   |   |
  /          /                /           / /   /   / / /   /   /

  |3|    |3| |--3---| |-3-|   |-3-| |-3-| |---3---|   |---3---|
  E Q    Q E E E    E E E E   E E E E E E E   E   E   E   E   E
|---------------------------|-------------------------------------|
|---------------------------|-------------------------------------|
|---------------------------|-------------------------------------|
|-6-------------------------|-------------6-------------------4---|
|----------4-6--------4-6-4-|-----2-4-6-3-----4---2---3---6-------|
|---1----4----------4-------|---4---------------------------------|
|--------------6------------|-2-----------------------------------|


  AII         BbAII                          BbAII
          |-3-|
  E   E   Q   E E   E   Q       E   E   E.   S E   E   Q
  |           | |               |            | |
  /           / /               /            / /

  |--3--| |-3-| |--3--| |-3-|   |--3--|        |--3--| |-3-|
  E E   E E E E E E   E E E E   E E   E S  E S E E   E E E E
|-----------------------------|-------------------------------|
|-----------------------------|-------------------------------|
|-----------------------------|-------------------------------|
|-----------1-------------1-3-|------------1------------------|
|-------2-4---3-------2-4-----|-------2-4----3-------2-4-6-3--|
|---4-------------4-----------|---4--------------4------------|
|-2-------------2-------------|-2--------------2--------------|


                                                     Gopen
  E   Q.           E   Q.           E   Q.           S S   S   S S S   S   S
  |                |                |                | |   |   | | |   |   |
  /                /                /                / /   /   / / /   /   /

                  |--3---| |-3-|                    |---3---|   |---3---|
 S E    S +S  E S E E    E E E E   S S S  S +S  E S E   E   E   E   E   E
|-------------------------------|------------------------------------------|
|-------------------------------|------------------------------------------|
|-------------------------------|------------------------------------------|
|6-----------------6------------|-----6------------6-----------------------|
|------------4-6p4----------4-6-|-6-4------------4-----4---2---6---4---2---|
|------4-(4)--------------4-----|--------------4---------------------------|
|-2---------------------2-------|--------2-(2)-----------------------------|


    Gopen                                                        BbIII
    S E S +S E S  H                   S E S +S E S  Q.           E
    | | |  | | |  |                   | | |  | | |  |            |
    / / /  / / /  /                   / / /  / / /  /            /

    H             S S S S S S S S  3x H             S  S S S S S E
||---------------------------------||-------------------------------|
||---------------------------------||-------------------------------|
||o--------------/6-6-6-6-6-6-6-6-o||--------------/6--6-6-6-6-6----|
||---------------------------------||-------------------------------|
||o--------------/6-6-6-6-6-6-6-6-o||--------------/6--6-6-6-6-6----|
||---------------------------------||-------------------------------|
||---------------------------------||----------------------------3--|


   Verse 1
    N.C.(A5)
                                   PM                                 PM
    |---9:8---|  |----6----| |-3-|     |---9:8---|  |----6----| |-3-|
    S E S E S E  S S S S S S S S S E   S E S E S E  S S S S S S S S S E
||-----------------------------------|-----------------------------------||
||-----------------------------------|-----------------------------------||
||o-------------/6-6-6-6-6-6-6-6-6---|-------------/6-6-6-6-6-6-6-6-6---o||
||-----------------------------------|-----------------------------------||
||o-0h2-0h2-0h2-/6-6-6-6-6-6-6-6-6---|-0h2-0h2-0h2-/6-6-6-6-6-6-6-6-6---o||
||--x-x-x-x-x-x----------------------|-x-x-x-x-x-x-----------------------||
||--0h2-0h2-0h2--------------------0-|-0h2-0h2-0h2--------------------0--||


  N.C.(C5)
                                PM                                PM
  |---9:8---| |----6----| |-3-|     |---9:8---| |----6----| |-3-|
  S E S E S E S S S S S S S S S E   S E S E S E S S S S S S S S S E
|---------------------------------|---------------------------------|
|---------------------------------|---------------------------------|
|-------------6-6-6-6-6-6-6-6-6---|-------------6-6-6-6-6-6-6-6-6---|
|---------------------------------|---------------------------------|
|-3S5-3S5-3S5-6-6-6-6-6-6-6-6-6---|-3S5-3S5-3S5-6-6-6-6-6-6-6-6-6---|
|-x-x-x-x-x-x---------------------|-x-x-x-x-x-x---------------------|
|-3S5-3S5-3S5-------------------0-|-3S5-3S5-3S5-------------------0-|


  N.C.(A5)                                       C5/G
  |---9:8---|  |----6----| |-3-|     |---9:8---|
  S E S E S E  S S S S S S S S S E   S E S E S E H
|----------------------------------|------------------|
|----------------------------------|------------------|
|-------------/6-6-6-6-6-6-6-6-6---|------------------|
|----------------------------------|------------------|
|-0h2-0h2-0h2-/6-6-6-6-6-6-6-6-6---|-----0h2-0h2-0----|
|-x-x-x-x-x-x----------------------|-----x-x-x-x-0----|
|-0h2-0h2-0h2--------------------3-|-0h2-0h2-0h2-0----|


    N.C.(A5)
                PM----|     PM
    |---9:8---|
    S E S E S E S S S S S S E
||-----------------------------||
||-----------------------------||
||o---------------------------o||
||-----------------------------||
||o-0h2-0h2-0h2-6-6-6-6-6-6---o||
||--x-x-x-x-x-x----------------||
||--0h2-0h2-0h2-------------0--||


              PM----|                     PM-----------|     PM
  |---9:8---|                 |---9:8------------------|
  S E S E S E S S S S S S E   S E S E S E S S S S S S E
|---------------------------|----------------------------|
|---------------------------|----------------------------|
|---------------------------|----------------------------|
|---------------------------|----------------------------|
|-0h2-0h2-0h2-6-6-6-6-6-6---|-0h2-0h2-0h2-6-6-6-6-6-6----|
|-x-x-x-x-x-x---------------|-x-x-x-x-x-x----------------|
|-0h2-0h2-0h2-------------3-|-0h2-0h2-0h2-------------0--|


              PM----|     PM              PM-----------|     PM
  |---9:8---|                 |---9:8------------------|
  S E S E S E S S S S S S E   S E S E S E S S S S S S E
|---------------------------|---------------------------|
|---------------------------|---------------------------|
|---------------------------|---------------------------|
|---------------------------|---------------------------|
|-3S5-3S5-3S5-6-6-6-6-6-6---|-3S5-3S5-3S5-6-6-6-6-6-6---|
|-x-x-x-x-x-x---------------|-x-x-x-x-x-x---------------|
|-3S5-3S5-3S5-------------0-|-3S5-3S5-3S5-------------0-|


              PM----|     PM              PM--------------|
  |---9:8---|                 |---9:8---------------------|
  S E S E S E S S S S S S E   S E S E S E S S S S S S S S
|---------------------------|-----------------------------|
|---------------------------|-----------------------------|
|---------------------------|-----------------------------|
|---------------------------|-----------------------------|
|-0h2-0h2-0h2-6-6-6-6-6-6---|-0h2-0h2-0h2-6-6-6-6-6-6-6-6-|
|-x-x-x-x-x-x---------------|-x-x-x-x-x-x-----------------|
|-0h2-0h2-0h2-------------0-|-0h2-0h2-0h2-----------------|


 Chorus
  N.C.(G)
  Gtr I
  W               H      H        Q  E E Q  Q     S S S S Q   S S S S Q
|---------------|---------------|--------------|---------------------------|
|---------------|---------------|--------------|---------------------------|
|---------------|---------------|--------------|---------------------------|
|---------------|--------4------|------4-------|-/6-6-6-6----/7-7-7-7------|
|-6-------------|-4-------------|-4--6---6--0--|----------0-----------0----|
|---------------|---------------|--------------|---------------------------|
|---------------|---------------|--------------|---------------------------|
|
| Gtr II
| Q  E E Q  E E   Q  E E Q  E E   Q  E E Q  Q     S S S S Q   S S S S Q
|---------------|---------------|--------------|---------------------------|
|---------------|---------------|--------------|---------------------------|
|---------------|---------------|--------------|---------------------------|
|---------------|---------------|--------------|-/6-6-6-6----/7-7-7-7------|
|---------------|---------------|-----------0--|----------0-----------0----|
|---------------|---------------|--------------|---------------------------|
|-0--0-0-0--0-0-|-0--0-0-0--0-0-|-0--0-0-0-----|---------------------------|


  H.         Q     H      Q  Q
|----------------|---------------|
|----------------|---------------|
|----------------|---------------|
|----------------|--------6------|
|-6----------6---|-4---------4---|
|----------------|---------------|
|----------------|---------------|
|
| Q   E E Q  E E   Q  E E Q  E E
|----------------|---------------|
|----------------|---------------|
|----------------|---------------|
|----------------|---------------|
|----------------|---------------|
|----------------|---------------|
|-0---0-0-0--0-0-|-0--0-0-0--0-0-|


  E E Q   +Q   Q     S S S S Q    S S S S  e E
|-----------------|------------------------------|
|-----------------|------------------------------|
|-----------------|------------------------------|
|---4-------------|-/6-6-6-6-----/7-7-7-7-/7-7---|
|-6---6---(6)--0--|----------0-------------------|
|-----------------|------------------------------|
|-----------------|------------------------------|
|
| Q   E E  Q   Q     S S E   e E  S S S S  e E
|-----------------|------------------------------|
|-----------------|------------------------------|
|-----------------|------------------------------|
|-----------------|-/6-6-6-------/7-7-7-7--------|
|--------------0--|----------0-0-----------0-0---|
|-----------------|------------------------------|
|-0---0-0--0------|------------------------------|


  N.C.(A5)                    N.C.(G)
  |-3-| |-3-|   |-3-| |-3-|
  Q Q Q Q Q Q   Q Q Q Q Q Q   Q  E  E Q  Q
|-------------|-------------|---------------|
|-------------|-------------|---------------|
|-------------|-------------|-4--6S11-6--0--|
|-------------|-------------|-x--xS=x-x--x--|
|-------------|-------------|-4--6S11-6--0--|
|-------------|-------------|---------------|
|-2-2-2-2-2-2-|-2-2-2-2-2-2-|---------------|


    |--3--|  |--3--|       |--3--|  |--3--|
    S  S  S  S  S  S E E   S  S  S  S  S  S Q
|------------------------------------------------|
|------------------------------------------------|
|-/11-11-11-11-11-11-0-0-/12-12-12-12-12-12-0----|
|--/x--x--x--x--x--x-x-x--/x--x--x--x--x--x-x----|
|-/11-11-11-11-11-11-0-0-/12-12-12-12-12-12-0----|
|------------------------------------------------|
|------------------------------------------------|


  N.C.
  S E S E S S +S  S E S E S   E S S +S  S E S E S E.     +S
|---------------------------|---------------------------------|
|---------------------------|---------------------------------|
|---------------------------|---------------------------------|
|---------------------------|---------------------------------|
|---------------------------|---------------------------------|
|---------------------------|---------------------------------|
|-4-2-4-2-4-2-(2)-4-2-4-2-4-|-1-4-2-(2)-4-1-4-2-4-3b3.5==(3)r-|


  N.C.(G)
                    |--3--|  |--3--|      |--3--|  |--3--|
  Q  E  E Q  Q      S  S  S  S  S  S Q    S  S  S  S  S  S Q
|---------------|---------------------------------------------|
|---------------|---------------------------------------------|
|----6S11-6--0--|-/11-11-11-11-11-11-0--/12-12-12-12-12-12-0--|
|----xS=x-x--x--|--/x--x--x--x--x--x-x---/x--x--x--x--x--x-x--|
|----6S11-6--0--|-/11-11-11-11-11-11-0--/12-12-12-12-12-12-0--|
|---------------|---------------------------------------------|
|---------------|---------------------------------------------|


 Interlude
  N.C.
  S S S S S S S S S S S S S S S S   S S S S S S S S S S S S S S S S
|---------------------------------|---------------------------------|
|---------------------------------|---------------------------------|
|---------------------------------|---------------------------------|
|-----------1-------------------1-|---------------------------------|
|-------0-4---4-------------0-4---|-4-------------0-4-6-4-----------|
|---1-3---------5-1-----1-3-------|---5---------3---------5---------|
|-2-----------------2-2-----------|-----6-0-1-2-------------6-0-1-2-|


  S S S S S S S S S S S S S S S S   S S S S S S S S S S S S S S S  S
|---------------------------------|-----------------------------------|
|---------------------------------|-----------------------------------|
|---------------------------------|-----------------------------------|
|---------------------------------|-----------------------------------|
|---------4-6-4-------------------|-------------4-6-4-----------------|
|-3-----4-------5---------3-----4-|-----5-----6-------5---------3-(6)-|
|---2-3-----------6-0-1-2---2-3---|-3-4---4-5-----------6-0-1-2-------|


  S S S S S S S S E S S S S S S   S S S S S S S S S S S S S S S S
|-------------------------------|----------------------------------|
|-------------------------------|----------------------------------|
|-------------------------------|----------------------------------|
|-------------------------------|----------------------------------|
|-4-6-4-------------4-6-4-------|-------x-4-6-4---------------4-6--|
|-------5---------3-------5-----|-----3---------5---------3-3------|
|---------6-0-1-2-----------6-0-|-1-2-------------6-0-1-2----------|


   Bridge
    N.C.
    PM--------------------------------------------------------------------|
    S S S S S S S S S S  S  S S S S S  3x S S S S S S S S S S  S  S S S S S
||------------------------------------||-----------------------------------|
||------------------------------------||-----------------------------------|
||o----------------------------------o||-----------------------------------|
||------------------------------------||-----------------------------------|
||o0-0-0-0-0-0-0-0-7-7-10-10-6-6-6-6-o||-0-0-0-0-0-0-0-0-7-7-10-10-6-6-4-4-|
||------------------------------------||-----------------------------------|
||------------------------------------||-----------------------------------|


                                          Gopen
    Gtr II
                                                                    |-3-|
    W                                     S S S S S S S S S S  S  S S S S S S
                                          | | | | | | | | | |  |  | | | | |
                                          x x x x x x x x x x  x  x x x x x

    Gtr I
    PM--------------------------------------------------------------------|
                                                                   |-3-|    
S S S S S S SS S S  S  S S S S S  3x S S S S S S S S S S  S  S S S S S S
||----------------------------------||-------------------------------------|
||----------------------------------||-------------------------------------|
||---------------------------------o||-------------------------------------|
||----------------------------------||-------------------------------------|
||o0-0-0-0-0-0-0-0-7-7-10-10-6-6-44o||-0-0-0-0-0-0-0-0-7-7-10-10-6-6-6-6---|
||----------------------------------||-------------------------------------|
||----------------------------------||-------------------------------------|


    Double Time H=115
    N.C.
    Gtrs I, II
  S S S S S S S S S S S S S S S S   S S S S  S  S  S  S S S S S S S S S   3x
||--------------------------------|---------------------------------------||
||--------------------------------|---------------------------------------||
||o-------------------------------|--------------------------------------o||
||--------------------------------|---------------------------------------||
||o0-0-0-0-0-0-0-0-0-0-0-0-0-0-0-0|-7-7-7-7-10-10-10-10-6-6-6-6-6-6-6-6--o||
||--------------------------------|---------------------------------------||
||--------------------------------|---------------------------------------||


   S S S S S S S S S S S S S S S S   S S S S  S  S  S  S S S S S S S S S
||--------------------------------|---------------------------------------||
||--------------------------------|---------------------------------------||
||o-------------------------------|--------------------------------------o||
||--------------------------------|---------------------------------------||
||o0-0-0-0-0-0-0-0-0-0-0-0-0-0-0-0|-7-7-7-7-10-10-10-10-6-6-6-6-4-4-4-4--o||
||--------------------------------|---------------------------------------||
||--------------------------------|---------------------------------------||


   S S S S S S S S S S S S S S S S   S S S S  S  S  S  S S S S S S S S S
||----------------------------------|-------------------------------------||
||---------------------------------|--------------------------------------||
||o-------------------------------|--------------------------------------o||
||/7-7-7-7------------------------|---------------------------------------||
||o---------0-0-0-0-0-0-0-0-0-0-0-0-|-7-7-7-7-10-10-10-10-6-6-6-6-4-4-4-4o||
||-----------------------------------|------------------------------------||
||-----------------------------------|------------------------------------||


                                                         TP
   S S S S S S S S S S S S S S S S   S S S S  S  S  S  S H
|----------------------------------|-----------------------------|
|----------------------------------|-----------------------------|
|----------------------------------|---------------------x-------|
|-/7-7-7-7-------------------------|-----------------------------|
|----------0-0-0-0-0-0-0-0-0-0-0-0-|-7-7-7-7-10-10-10-10---------|
|----------------------------------|-----------------------------|
|----------------------------------|-----------------------------|


    S S S S S S S S  S  S  S  S S S S S   S S S S S S S S S S S S S S S S
||--------------------------------------|----------------------------------|
||--------------------------------------|----------------------------------|
||o-------------------------------------|----------------------------------|
||--------------------------------------|-----------------7-7-7-7----------|
||o-0-0-0-0-7-7-7-7-10-10-10-10-6-6-6-6-|-9-9-9-9-9-9-9-9---------6-6-6-6--|
||--------------------------------------|----------------------------------|
||--------------------------------------|----------------------------------|


  S S S S S S S S  S  S  S  S S S S S   S S S S S S S S S S S S S S S S
|-------------------------------------|---------------------------------|
|-------------------------------------|---------------------------------|
|-------------------------------------|---------------------------------|
|-------------------------------------|-----------------7-7-7-7-7-7-7-7-|
|-0-0-0-0-7-7-7-7-10-10-10-10-6-6-6-6-|-9-9-9-9-9-9-9-9-----------------|
|-------------------------------------|---------------------------------|
|-------------------------------------|---------------------------------|


  S S S S S S S S  S  S  S  S S S S S   S S S S S S S S S S S S S S S S
|-------------------------------------|---------------------------------|
|-------------------------------------|---------------------------------|
|-------------------------------------|---------------------------------|
|-------------------------------------|-----------------7-7-7-7---------|
|-0-0-0-0-7-7-7-7-10-10-10-10-6-6-6-6-|-9-9-9-9-9-9-9-9---------6-6-6-6-|
|-------------------------------------|---------------------------------|
|-------------------------------------|---------------------------------|


  S S S S S S S S  S  S  S  S S S S S   S S S S S S S S S S S S S S S S
|-------------------------------------|----------------------------------||
|-------------------------------------|----------------------------------||
|-------------------------------------|---------------------------------o||
|-------------------------------------|---------7-7-7-7-9-9-9-9-9-9-9-9--||
|-0-0-0-0-7-7-7-7-10-10-10-10-6-6-6-6-|-9-9-9-9-------------------------o||
|-------------------------------------|----------------------------------||
|-------------------------------------|----------------------------------||


 Breakdown
  N.C.
  S S e S S e S S e E.. +T    S S e S S e S S e E.. +T
|---------------------------|---------------------------|
|-x-x-x-x-x-x-x-x-x---------|-x-x-x-x-x-x-x-x-x---------|
|-x-x-x-x-x-x-x-x-x---------|-x-x-x-x-x-x-x-x-x---------|
|-x-x-x-x-x-x-x-x-x---------|-x-x-x-x-x-x-x-x-x---------|
|-x-x-x-x-x-x-x-x-x---------|-x-x-x-x-x-x-x-x-x---------|
|-x-x-x-x-x-x-x-x-x---------|-x-x-x-x-x-x-x-x-x---------|
|-x-x-x-x-x-x-x-x-x-3b4-(3)-|-x-x-x-x-x-x-x-x-x-3b4-(3)-|


  S S e S S e S S e E.. +T
|----------------------------|
|-x-x-x-x-x-x-x-x-x----------|
|-x-x-x-x-x-x-x-x-x----------|
|-x-x-x-x-x-x-x-x-x----------|
|-x-x-x-x-x-x-x-x-x----------|
|-x-x-x-x-x-x-x-x-x----------|
|-x-x-x-x-x-x-x-x-x-3b4-(3)--|


  Gtr III
  W                 W
|-----------------|---------------------------|
|-----------------|---------------------------|
|-----------------|---------------------------|
|-----------------|---------------------------|
|-----------------|---------------------------|
|-----------------|---------------------------|
|-----------------|---------------------------|
|
| Gtr IV
| W                 W
|-----------------|---------------------------|
|-----------------|---------------------------|
|-----------------|---------------------------|
|-----------------|---------------------------|
|-----------------|---------------------------|
|-----------------|---------------------------|
|-----------------|---------------------------|
|
| Gtrs I, II
| E E E E E E E E   S S e S S e S S e E.. +T
|-----------------|---------------------------|
|-----------------|-x-x-x-x-x-x-x-x-x---------|
|-----------------|-x-x-x-x-x-x-x-x-x---------|
|-----------------|-x-x-x-x-x-x-x-x-x---------|
|-----------------|-x-x-x-x-x-x-x-x-x---------|
|-----------------|-x-x-x-x-x-x-x-x-x---------|
|-7-8-7-6-7-6-5-6-|-x-x-x-x-x-x-x-x-x-3b4-(3)-|


  H.                  E       E
|---------------------------------------|
|---------------------------------------|
|---------------------------------------|
|---------------------------------------|
|--------------------16------19---------|
|---------------------------------------|
|---------------------------------------|
|
|                     |----3-----|
| H.                  E    E     E
|---------------------------------------|
|---------------------------------------|
|-------------------------------11------|
|--------------------12---15------------|
|---------------------------------------|
|---------------------------------------|
|---------------------------------------|
|
| S  S e S S e S S e  E..          +T
|---------------------------------------|
|-x--x-x-x-x-x-x-x-x--------------------|
|-x--x-x-x-x-x-x-x-x--------------------|
|-x--x-x-x-x-x-x-x-x--------------------|
|-x--x-x-x-x-x-x-x-x--------------------|
|-x--x-x-x-x-x-x-x-x--------------------|
|-x--x-x-x-x-x-x-x-x--3b4----------(3)--|


   |--3--|  |--3--|  |--3--|  |--3--|               |--3--|  |--3--|  |3-|
   E  E  E  E  E  E  E  E  E  E  E  E    E     E    E  E  E  E  E  E  Q  E
|------------------------------------|-------------------------------------|
|------------------------------------|-------------------------------------|
|------------------------------------|-------------------------------------|
|16h20p16----------------------------|-------------------------------------|
|---------19p17h18-20p18p16----16h18-|-20p===18----------------------------|
|---------------------------20-------|------------20p19p18-17h18h20-20-----|
|------------------------------------|---------------------------------13--|
|
|  |--3--|  |--3--|  |--3--|  |--3--|    |---3---|  |--3--|  |--3--|  |3-|
|  E  E  E  E  E  E  E  E  E  E  E  E    E  E    E  E  E  E  E  E  E  Q  E
|------------------------------------|-------------------------------------|
|------------------------------------|-------------------------------------|
|15p13p11----------11p10p=8-----6h=8-|-10p=8p===6--------------------------|
|---------12h13p12-----------7-------|-------------7h10p=8-10p=8p=7--8h10h=|
|------------------------------------|-------------------------------------|
|------------------------------------|-------------------------------------|
|------------------------------------|-------------------------------------|
|
|  H                 Q        Q          W
|------------------------------------|---------------------------------------|
|------------------------------------|---------------------------------------|
|------------------------------------|---------------------------------------|
|------------------------------------|---------------------------------------|
|-------------------7s=======4s======|==9------------------------------------|
|------------------------------------|---------------------------------------|
|------------------------------------|---------------------------------------|


   +E    Q.       H
|-------------------------------|
|-------------------------------|
|-------------------------------|
|-------------------------------|
|-------------------------------|
|-------------------------------|
|-(13)--------------------------|
|
|   E    Q.       H
|-------------------------------|
|-------------------------------|
|-------------------------------|
|--11---------------------------|
|-------------------------------|
|-------------------------------|
|-------------------------------|
|
|   S  S e  S S e S S e E.. +T
|-------------------------------|
|---x--x-x--x-x-x-x-x-x---------|
|---x--x-x--x-x-x-x-x-x---------|
|---x--x-x--x-x-x-x-x-x---------|
|---x--x-x--x-x-x-x-x-x---------|
|---x--x-x--x-x-x-x-x-x---------|
|---x--x-x--x-x-x-x-x-x-3b4-(3)-|


  W                           W
|---------------------------|----------------------------|
|---------------------------|----------------------------|
|---------------------------|----------------------------|
|---------------------------|----------------------------|
|---------------------------|----------------------------|
|---------------------------|----------------------------|
|---------------------------|----------------------------|
|
| W                           W
|---------------------------|----------------------------|
|---------------------------|----------------------------|
|---------------------------|----------------------------|
|---------------------------|----------------------------|
|---------------------------|----------------------------|
|---------------------------|----------------------------|
|---------------------------|----------------------------|
|
| S S e S S e S S e E.. +T    S S e S S e S S e E.. +T
|---------------------------|----------------------------|
|-x-x-x-x-x-x-x-x-x---------|-x-x-x-x-x-x-x-x-x----------|
|-x-x-x-x-x-x-x-x-x---------|-x-x-x-x-x-x-x-x-x----------|
|-x-x-x-x-x-x-x-x-x---------|-x-x-x-x-x-x-x-x-x----------|
|-x-x-x-x-x-x-x-x-x---------|-x-x-x-x-x-x-x-x-x----------|
|-x-x-x-x-x-x-x-x-x---------|-x-x-x-x-x-x-x-x-x----------|
|-x-x-x-x-x-x-x-x-x-3b4-(3)-|-x-x-x-x-x-x-x-x-x-3b4-(3)--|


  Ab5                                       N.C.
  Gtrs I, II
  PM--------------------------|
  E Q  E E Q  E     E E E E E E E.. +T      Q  Q  Q  Q    Q  Q   Q   Q
|---------------||-----------------------||-------------|----------------|
|-x-x--x-x-x--x-||-----------------------||-------------|----------------|
|-x-x--x-x-x--x-||o---------------------o||-------------|----------------|
|-x-x--x-x-x--x-||-----------------------||-------------|----------------|
|-x-x--x-x-x--x-||o---------------------o||-------------|----------------|
|-3-3--3-3-3--3-||--3-3-3-3-3-3----------||-------------|----------------|
|-1-1--1-1-1--1-||--1-1-1-1-1-1-3b4-(3)--||-4--5--6--7--|-8--9--10--11---|


   Verse 2
    N.C.
    S S S S S S S S  S  S  S  S S S S S   S S S S S S S S S S S S S S S S
||--------------------------------------|---------------------------------|
||--------------------------------------|---------------------------------|
||o-------------------------------------|---------------------------------|
||--------------------------------------|-----------------7-7-7-7---------|
||o-0-0-0-0-7-7-7-7-10-10-10-10-6-6-6-6-|-9-9-9-9-9-9-9-9---------6-6-6-6-|
||--------------------------------------|---------------------------------|
||--------------------------------------|---------------------------------|


  S S S S S S S S  S  S  S  S S S S S   S S S S S S S S S S S S S S S S
|-------------------------------------|---------------------------------|
|-------------------------------------|---------------------------------|
|-------------------------------------|---------------------------------|
|-------------------------------------|-----------------7-7-7-7-7-7-7-7-|
|-0-0-0-0-7-7-7-7-10-10-10-10-6-6-6-6-|-9-9-9-9-9-9-9-9-----------------|
|-------------------------------------|---------------------------------|
|-------------------------------------|---------------------------------|


  S S S S S S S S  S  S  S  S S S S S   S S S S S S S S S S S S S S S S
|-------------------------------------|---------------------------------|
|-------------------------------------|---------------------------------|
|-------------------------------------|---------------------------------|
|-------------------------------------|-----------------7-7-7-7---------|
|-0-0-0-0-7-7-7-7-10-10-10-10-6-6-6-6-|-9-9-9-9-9-9-9-9---------6-6-6-6-|
|-------------------------------------|---------------------------------|
|-------------------------------------|---------------------------------|


  1.
  S S S S S S S S  S  S  S  S S S S S   S S S S S S S S S S S S S S S S
|-------------------------------------|----------------------------------||
|-------------------------------------|----------------------------------||
|-------------------------------------|---------------------------------o||
|-------------------------------------|---------7-7-7-7-9-9-9-9-9-9-9-9--||
|-0-0-0-0-7-7-7-7-10-10-10-10-6-6-6-6-|-9-9-9-9-------------------------o||
|-------------------------------------|----------------------------------||
|-------------------------------------|----------------------------------||


  2.
  S S S S S S S S  S  S  S  S S S S S   S S S S S S S S  H
|-------------------------------------|--------------------------|
|-------------------------------------|--------------------------|
|-------------------------------------|--------------------------|
|-------------------------------------|---------7-7-7-7----------|
|-0-0-0-0-7-7-7-7-10-10-10-10-6-6-6-6-|-9-9-9-9------------------|
|-------------------------------------|-----------------17-------|
|-------------------------------------|--------------------------|


   Chorus
    N.C.(G)
    Gtr I
    W          +W           W          W
||-----------|------------|----------|------|
||-----------|------------|----------|------|
||o----------|------------|----------|------|
||-----------|------------|----------|-4----|
||o-6--------|-(6)--------|-4--------|------|
||-----------|------------|----------|------|
||-----------|------------|----------|------|


                           1.
                           Gtrs I, II
                             |--3--|  |--3--|          |--3--|  |--3--|
  H    Q  Q    H    H        E  E  E  E  E  E H        E  E  E  E  E  E H
|------------|-----------|-------------------------|----------------------||
|------------|-----------|-------------------------|----------------------||
|------------|-----------|-/11-11-11-11-11-11-0----|-/12-12-12-12-12-12-0o||
|---------4--|-----------|--/x--x--x--x--x--x-x----|--/x--x--x--x--x--x-x-||
|-4----6-----|-6----0----|-/11-11-11-11-11-11-0----|-/12-12-12-12-12-12-0o||
|------------|-----------|-------------------------|----------------------||
|------------|-----------|-------------------------|----------------------||


  2.
  Gtr I
    |--3--|  |--3--|          |--3--|  |--3--|
    E  E  E  E  E  E H        E  E  E  E  E  E H
|-------------------------|-------------------------|
|-------------------------|-------------------------|
|-/11-11-11-11-11-11-0----|-/12-12-12-12-12-12-0----|
|--/x--x--x--x--x--x-x----|--/x--x--x--x--x--x-x----|
|-/11-11-11-11-11-11-0----|-/12-12-12-12-12-12-0----|
|-------------------------|-------------------------|
|-------------------------|-------------------------|
|
| Gtr II
|   |--3--|  |--3--|          |--3--|  |--3--|
|   E  E  E  E  E  E H        E  E  E  E  E  E H
|-------------------------|-------------------------|
|-------------------------|-------------------------|
|-/11-11-11-11-11-11-0----|-/13-13-13-13-13-13-0----|
|--/x--x--x--x--x--x-x----|--/x--x--x--x--x--x-x----|
|-/11-11-11-11-11-11-0----|-/13-13-13-13-13-13-0----|
|-------------------------|-------------------------|
|-------------------------|-------------------------|


 Verse 3
  N.C.(A5)
                        PM
  |---9:8---|                |---9:8---|
  E Q E Q E Q   H.      Q    E Q E Q E Q   H    H
|-------------|------------|-------------|-----------|
|-------------|------------|-------------|-----------|
|-------------|------------|-------------|-----------|
|-------------|------------|-------------|-----------|
|-------------|------------|-------------|-----------|
|-------------|------------|-------------|-----------|
|-0-2-0-2-0-2-|-6-------0--|-0-2-0-2-0-2-|-6----0----|


  |---9:8---|               |---9:8---|
  E Q E Q E Q   H    H      E Q E Q E Q   W
|-------------|-----------|-------------|------|
|-------------|-----------|-------------|------|
|-------------|-----------|-------------|-0----|
|-------------|-----------|-------------|-0----|
|-------------|-----------|-------------|-0----|
|-------------|-----------|-------------|-0----|
|-0-2-0-2-0-2-|-6----0----|-0-2-0-2-0-2-|-0----|


    Half Time Q=115
    N.C.(A5)
    |---9:8---| |----6----| |----6----|
    S E S E S E S S S S S S S S S S S S
||--------------------------------------|
||--------------------------------------|
||o-------------------------------------|
||--------------7-7-7-7-7-7-7-7-7-7-7-7-|
||o-0h2-0h2-0h2-------------------------|
||--x-x-x-x-x-x-7-7-7-7-7-7-7-7-7-7-7-7-|
||--0h2-0h2-0h2-------------------------|


  |---9:8---| |----6----| |----6----|
  S E S E S E S S S S S S S S S S S S
|--------------------------------------||
|--------------------------------------||
|-------------------------------------o||
|-------------7-7-7-7-7-7-7-7-7-7-7-7--||
|-0h2-0h2-0h2-------------------------o||
|-x-x-x-x-x-x-7-7-7-7-7-7-7-7-7-7-7-7--||
|-0h2-0h2-0h2--------------------------||


  N.C.(C5)
  |---9:8---| |----6----| |-------6-------|
  S E S E S E S S S S S S S S S S     S   S
|---------------------------------------------|
|---------------------------------------------|
|---------------------------------------------|
|-------------6-6-6-6-6-6-6-6-6-6b6.5-6b7-6b7-|
|-3S5-3S5-3S5---------------------------------|
|-x-x-x-x-x-x-6-6-6-6-6-6-6-6-6-6b6.5-6b7-6b7-|
|-3S5-3S5-3S5---------------------------------|


  |---9:8---| |-----6------| |----6----|
  S E S E S E S    S S S S S S S S S S S
|-----------------------------------------|
|-----------------------------------------|
|-----------------------------------------|
|-------------5b6==5-5-5-5-5-5-5-5-5-5r5--|
|-3S5-3S5-3S5-----------------------------|
|-x-x-x-x-x-x-5b6==5-5-5-5-5-5-5-5-5-5r5--|
|-3S5-3S5-3S5-----------------------------|


 Outro
  N.C.
  E. S +E  E Q   Q       E S S +S  S E Q  Q   6x
|--------------------||--------------------------|
|--------------------||--------------------------|
|--------------------||o---------------------o---|
|--------------------||--------------------------|
|-2--2-(2)-2-3--11--||o-2-0-2-(2)-0-2-3--3--o----|
|--------------------||--------------------------|
|-2--2-(2)-2-3--11--||--2-0-2-(2)-0-2-3--3-------|


  E. S +E  E E. S +E  E   E. S +E  E Q  Q
|-----------------------|--------------------|
|-----------------------|--------------------|
|-----------------------|--------------------|
|-----------------------|--------------------|
|-4--4-(4)-4-1--1-(1)-1-|-2--2-(2)-2-3--1----|
|-----------------------|--------------------|
|-4--4-(4)-4-1--1-(1)-1-|-2--2-(2)-2-3--1----|


    E S S +S  S E Q  Q      E. S +E  E E. S +E  E   E. S +E  E Q  Q
||-----------------------||-----------------------|------------------|
||-----------------------||-----------------------|------------------|
||o---------------------o||-----------------------|------------------|
||-----------------------||-----------------------|------------------|
||o-2-0-2-(2)-0-2-3--3--o||-4--4-(4)-4-1--1-(1)-1-|-2--2-(2)-2-3--1--|
||-----------------------||-----------------------|------------------|
||--2-0-2-(2)-0-2-3--3---||-4--4-(4)-4-1--1-(1)-1-|-2--2-(2)-2-3--1--|


    E S S +S  S E Q  Q      E. S +E  E E. S +E  E
||-----------------------||-----------------------|
||-----------------------||-----------------------|
||o---------------------o||-----------------------|
||-----------------------||-----------------------|
||o-2-0-2-(2)-0-2-3--3--o||-4--4-(4)-4------------|
||-----------------------||-----------------------|
||--2-0-2-(2)-0-2-3--3---||-4--4-(4)-4-0--0-(0)-0-|


 2/4          4/4
  E. S +E  E   E. S +E  E Q  Q
|------------|------------------|
|------------|------------------|
|------------|------------------|
|------------|------------------|
|-1--1-(1)-1-|-2--2-(2)-2-3--1--|
|------------|------------------|
|-1--1-(1)-1-|-2--2-(2)-2-3--1--|


    E S S +S  S E Q  Q   3x     E S S +S  S E E +E    E +E     3x
||-----------------------||-||---------------------------------||
||-----------------------||-||---------------------------------||
||o---------------------o||-||o-------------------------------o||
||-----------------------||-||---------------------------------||
||o-2-0-2-(2)-0-2-3--3--o||-||o-------------------------------o||
||-----------------------||-||---------------------------------||
||--2-0-2-(2)-0-2-3--3---||-||--2-0-2-(2)-0-2-2-(2)b3-2-(2)b3--||


  E. S +E  E E. S +E  E   +W
|-----------------------|--------*|
|-----------------------|--------*|
|-----------------------|--------*|
|-----------------------|--------*|
|-4--4-(4)-4-1--1-(1)-1-|-(1)----*|
|-----------------------|--------*|
|-4--4-(4)-4-1--1-(1)-1-|-(1)----*|




Duration Legend
---------------
W - whole; H - half; Q - quarter; E - 8th; S - 16th; T - 32nd; X - 64th; a - acciaccatura
+ - note tied to previous; . - note dotted; .. - note double dotted
Uncapitalized letters represent notes that are staccato (1/2 duration)
Irregular groupings are notated above the duration line
Duration letters will always appear directly above the note/fret number it represents the
duration for.  Duration letters with no fret number below them represent rests.  Multi-
bar rests are notated in the form Wxn, where n is the number of bars to rest for.  Low
melody durations appear below the staff

Tablature Legend
----------------
 h   - hammer-on
 p   - pull-off
 b   - bend
 pb  - pre-bend
 r   - bend release (if no number after the r, then release immediately)
 /  - slide into or out of (from/to "nowhere")
 s   - legato slide
 S   - shift slide
 - natural harmonic
[n]  - artificial harmonic
n(n) - tapped harmonic
 ~   - vibrato
 tr  - trill
 T   - tap
 TP  - trem. picking
 PM  - palm muting
n/  - tremolo bar dip; n = amount to dip
 n  - tremolo bar down
 n/  - tremolo bar up
/n  - tremolo bar inverted dip
 =   - hold bend; also acts as connecting device for hammers/pulls
 <> - volume swell (louder/softer)
 x   - on rhythm slash represents muted slash
 o   - on rhythm slash represents single note slash

Misc Legend
-----------
 |  - bar
||  - double bar
||o - repeat start
o|| - repeat end
*|  - double bar (ending)
 :  - bar (freetime)
 $  - Segno
 &  - Coda
Tempo markers -  = BPM(8/16=s8/s16), where s8 = swing 8ths, s16 = swing 16ths





Comments


Popular Strapping Young Lad tabs & chords
Love? Bass Tabs
Aaa Tabs
All Hail The New Flesh Tabs
Love? Tabs
New Black Tabs
Oh My Fucking God Tabs
Relentless 1 Tabs
Satans Ice Cream Truck Intro Tabs
Undernearth The Waves Tabs
Underneath The Waves Tabs


Song lyrics



↑ Back to top | Tablatures and chords are parodies/interpretations of the original songs. You may use it for private study, scholarship, research or language learning purposes only
© 2014 AZChords.com Contact us | Privacy policy | DMCA | Add/correct tabs | Request tabs | Top 50 tabs