» » »

Polyphony Tabs (ver.1)

Artists:  A B C D E F G H I J K L M N O P Q R S T U V W X Y Z # 

Polyphony Tabs (ver.1)

Strapping Young Lad
Rating:
5/5 (4 votes)

Hard to play? Try these video lessons and learn fast.
                Band: Strapping Young Lad 

Guitars - 7-string tuned GCGCGCE low to high 

m - palm mute 
() = held note 




0:00--Guitar 1                       x12 
||   E|-------------|-------------|-------------|---------------|  || 
||   C|-------------|-------------|-3--3-3-3-3--|-3--3-3-3-3----|  || 
||o  G|-------------|-------------|-3--3-3-3-3--|-3--3-3-3-3----| o|| 
||   C|-------------|-------------|-3--3-3-3-3--|-3--3-3-3-3----|  || 
||o  G|-0--0-0-0-0--|-0--0-0-0-0--|-------------|---------------| o|| 
||   C|-0--0-0-0-0--|-0--0-0-0-0--|-------------|---------------|  || 
||   G|-------------|-------------|-------------|---------------|  || 
   m  m m m m    m  m m m m 


1:04--Guitar 1 
     E|-------------|-------------|-------------|---------------| 
     C|-3-3-3-3-3-3-|-3-3-3-3-3-3-|-3-3-3-3-3-3-|-3-3-3-3-3-3---| 
     G|-3-3-3-3-3-3-|-3-3-3-3-3-3-|-3-3-3-3-3-3-|-3-3-3-3-3-3---| 
     C|-3-3-3-3-3-3-|-3-3-3-3-3-3-|-3-3-3-3-3-3-|-3-3-3-3-3-3---| 
     G|-------------|-------------|-------------|---------------| 
     C|-------------|-------------|-------------|---------------| 
     G|-------------|-------------|-------------|---------------| 


*1:09/1:30--Guitar 1 
||   E|-------------|-------------|-------------|---------------| 
||   C|-------------|-3----3------|-------------|-3-------------| 
||o  G|-------------|-3----2------|-------------|-3/5-2-3-2-3-2-| 
||   C|-------------|-3----3------|-------------|-3-------------| 
||o  G|-3-2-0-------|-------------|-3-2-0-------|---------------| 
||   C|-3-2-0-------|-------------|-3-2-0-------|---------------| 
||   G|-------------|-------------|-------------|---------------| 
   m m              m m 

*1:09/1:30--Guitar2 
     E|-------------|-------------|-------------|---------------| 
     C|-------------|-------------|-------------|---------------| 
     G|-------------|-------------|-------------|---------------| 
     C|-------------|-------------|-------------|---------------| 
     G|-3-2-0-------|-(0)---------|-3-2-0-------|-(0)-----------| 
     C|-3-2-0-------|-(0)---------|-3-2-0-------|-(0)-----------| 
     G|-------------|-------------|-------------|---------------| 
   m m              m m 


*1:22/1:44--Guitar 1 
     E|-------------|-------------|-------------|---------------|  || 
     C|-------------|-3----3------|-------------|---------------|  || 
     G|-------------|-3----2------|-------------|---------------| o|| 
     C|-------------|-3----3------|-------------|---------------|  || 
     G|-3-2-0-------|-------------|-5-5-5-5-5-5-|-5-5-5-5-5-5---| o|| 
     C|-3-2-0-------|-------------|-5-5-5-5-5-5-|-5-5-5-5-5-5---|  || 
     G|-------------|-------------|-------------|---------------|  || 
        m m              m m m m m m   m m m m m m 

*1:22/1:44--Guitar2 
     E|-------------|-------------|-------------|---------------|  || 
     C|-------------|-------------|-------------|---------------|  || 
     G|-------------|-------------|-------------|---------------| o|| 
     C|-------------|-------------|-------------|---------------|  || 
     G|-3-2-0-------|-(0)---------|-5-5-5-5-5-5-|-5-5-5-5-5-5---| o|| 
     C|-3-2-0-------|-(0)---------|-5-5-5-5-5-5-|-5-5-5-5-5-5---|  || 
     G|-------------|-------------|-------------|---------------|  || 
        m m                   m m m m m m   m m m m m m 
            
Hard to play? Try these video lessons and learn fast. | Correct




comments powered by Disqus
↑ Back to top | Tablatures and chords are parodies/interpretations of the original songs. You may use it for private study, scholarship, research or language learning purposes only