>
 >
In The Rainy Season

In The Rainy Season Guitar Tabs

Strapping Young Lad - In The Rainy Season chords, tabs, tablatures, lyrics

Guitar lessons | Add/correct | Request | Top 50 tabs Artists:  A B C D E F G H I J K L M N O P Q R S T U V W X Y Z 0-9

In The Rainy Season Guitar Tabs – Strapping Young Lad

CD, Sheet music, Poster

Do you like In The Rainy Season? Share with your friends now
Tabs
Low to high (C G C G C E)

Sorry for messyness.. if I get a chance soon, I'll make a tab that makes more sense than this.

Riff One - 16x
Riff Two - 3x    Fill One 1x
Riff One - 4x
Riff Two - 3x    Fill One 1x
Riff One - 4x

Riff Three - 1x
Riff Four - 7x     Fill Two - 1x
Riff Four - 7x
Riff One - 17x
Riff Two - 3x   Fill One - 1x
Riff One 4x
Riff Two - 3x   Fill One - 1x
Riff One - 4x

Riff Three - 1x
Riff Four - 7x   Fill Two - 1x
Riff Four - 8x
Riff Five - 3x    Fill Three - 1x
Riff Five - 3x    Fill Four - 1x
Riff Five - 3x    Fill Five - 1x
Riff Six - 3x      Fill Six - 1x
Riff One - 16x
Riff Three - 1x
Riff One - 4x
Riff Three - 1x
Riff One - 4x
Riff Three - 1x
Riff Four - 4x
Riff Three - 1x
Riff Four - 8x
**Slower Part + Overdubs**
Riff Seven - 13x
Riff Eight - 1x
Riff Seven - 2x
Riff Eight - 1x
Riff Seven - 2x
Riff Nine - 1x
Riff Ten - 2x
Riff Nine - 1x
Last Chord

~fin~

------------------------------------------------------------------------------
------------------------------------------------------------------------------
------------------------------------------------------------------------------
--0---------------------------------------------------------------------------
--0---------------------------------------------------------------------------
--0---------------------------------------------------------------------------
  Intro                                                                       

----------|-----------------|-------------------------------------------------
----------|-----------------|-------------------------------------------------
----------|-----------------|-------------------------------------------------
----------|-x---x---x---x---|-------------------------------------------------
----------|-x---x---x---x---|-------------------------------------------------
----------|-x---x---x---x---|-------------------------------------------------
 Riff One   1 + 2 + 3 + 4 +                                                   

----------|----------------|--------------------------------------------------
----------|----------------|--------------------------------------------------
----------|----------------|--------------------------------------------------
----------|----------------|--------------------------------------------------
----------|----------------|--------------------------------------------------
----------|2222222233333---|--------------------------------------------------
 Riff Two  1 + 2 + 3 + 4 +                                                    

----------|----------------|--------------------------------------------------
----------|----------------|--------------------------------------------------
----------|----------------|--------------------------------------------------
----------|----------------|--------------------------------------------------
----------|----------------|--------------------------------------------------
----------|222222223-3-3\--|--------------------------------------------------
 Fill One  1 + 2 + 3 + 4 +                                                    

----------|----------------|---------------|----------------|-----------------
----------|----------------|---------------|----------------|-----------------
----------|5-5-5-5-5-5-5-5-|5-5-5-5-5-5-5-5|5-5-5-5-5-5-5-5-|5---5---5---5----
----------|5-5-5-5-5-5-5-5-|5-5-5-5-5-5-5-5|5-5-5-5-5-5-5-5-|5---5---5---5----
----------|5-5-5-5-5-5-5-5-|5-5-5-5-5-5-5-5|5-5-5-5-5-5-5-5-|5---5---5---5----
----------|5-5-5-5-5-5-5-5-|5-5-5-5-5-5-5-5|5-5-5-5-5-5-5-5-|5---5---5---5----
 Riff 3    1 + 2 + 3 + 4 +  1 + 2 + 3 + 4 + 1 + 2 + 3 + 4 +  1 + 2 + 3 + 4 +  

-----------|----------------|-------------------------------------------------
-----------|----------------|-------------------------------------------------
-----------|2-2-2-2-2-2-2-2-|-------------------------------------------------
-----------|2-2-2-2-2-2-2-2-|-------------------------------------------------
-----------|2-2-2-2-2-2-2-2-|-------------------------------------------------
-----------|2-2-2-2-2-2-2-2-|-------------------------------------------------
 Riff Four  1 + 2 + 3 + 4 +                                                   

----------|-------------------------------------------------------------------
----------|-------------------------------------------------------------------
----------|2-2-2-2------------------------------------------------------------
----------|2-2-2-2------------------------------------------------------------
----------|2-2-2-2------------------------------------------------------------
----------|2-2-2-2-4-4-4-4----------------------------------------------------
 Fill Two  1 + 2 + 3 + 4 +                                                    

----------|----------------|--------------------------------------------------
----------|----------------|--------------------------------------------------
----------|----------------|--------------------------------------------------
----------|666666000000----|--------------------------------------------------
----------|------------2222|--------------------------------------------------
----------|----------------|--------------------------------------------------
 Riff Five 1 + 2 + 3 + 4 +                                                    

-----------|----------------|-------------------------------------------------
-----------|----------------|-------------------------------------------------
-----------|----------------|-------------------------------------------------
-----------|----------------|-------------------------------------------------
-----------|----------------|-------------------------------------------------
-----------|4-4-6-4-4-4-6-4-|-------------------------------------------------
 Fill Three 1 + 2 + 3 + 4 +                                                   

----------|---------------|---------------------------------------------------
----------|---------------|---------------------------------------------------
----------|---------------|---------------------------------------------------
----------|---------------|---------------------------------------------------
----------|0-----0-----0--|---------------------------------------------------
----------|0-----0-----0--|---------------------------------------------------
 Fill Four 1 + 2 + 3 + 4 +                                                    

----------|----------------|--------------------------------------------------
----------|----------------|--------------------------------------------------
----------|----------------|--------------------------------------------------
----------|----------------|--------------------------------------------------
----------|----------------|--------------------------------------------------
----------|2-2-2-2-4-4-4-4-|--------------------------------------------------
 Fill Five 1 + 2 + 3 + 4 +                                                    

----------|----------------|--------------------------------------------------
----------|----------------|--------------------------------------------------
----------|----------------|--------------------------------------------------
----------|----------------|--------------------------------------------------
----------|----------------|--------------------------------------------------
----------|2-2-2-0-0-0-4-4-|--------------------------------------------------
 Riff Six  1 + 2 + 3 + 4 +                                                    

----------|----------------|--------------------------------------------------
----------|----------------|--------------------------------------------------
----------|----------------|--------------------------------------------------
----------|----------------|--------------------------------------------------
----------|xxxxxxxxx---x---|--------------------------------------------------
----------|xxxxxxxxx---x---|--------------------------------------------------
 Fill Six  1 + 2 + 3 + 4 +                                                    

--------------------|---------------|-----------------------------------------
--------------------|---------------|-----------------------------------------
--------------------|---------------|-----------------------------------------
--------------------|000-0-000-0-000|-----------------------------------------
--------------------|000-0-000-0-000|-----------------------------------------
--------------------|000-0-000-0-000|-----------------------------------------
 **SLOWER** Riff 7   1 + 2 + 3 + 4 +                                          

------------|----------------|----------------|-------------------------------
------------|----------------|----------------|-------------------------------
------------|----------------|----------------|-------------------------------
------------|2-------------0-|2-----------4---|-------------------------------
------------|2-------------0-|2-----------4---|-------------------------------
------------|2-------------0-|2-----------4---|-------------------------------
 Riff Eight  1 + 2 + 3 + 4 +  1 + 2 + 3 + 4 +                                 

-----------|----------------|---------------|---------------------------------
-----------|----------------|---------------|---------------------------------
-----------|----------------|---------------|---------------------------------
-----------|4-------------3-|4-----------6--|---------------------------------
-----------|4---------------|4-----------6--|---------------------------------
-----------|4-------------3-|4-----------6--|---------------------------------
 Riff Nine  1 + 2 + 3 + 4 +  1 + 2 + 3 + 4 +                                  

----------|----------------|--------------------------------------------------
----------|----------------|--------------------------------------------------
----------|----------------|--------------------------------------------------
----------|222-2-222-2-222-|--------------------------------------------------
----------|222-2-222-2-222-|--------------------------------------------------
----------|222-2-222-2-222-|--------------------------------------------------
 Riff Ten  1 + 2 + 3 + 4 +                                                    

-----------|------------------------------------------------------------------
-----------|------------------------------------------------------------------
-----------|2-----------------------------------------------------------------
-----------|2-----------------------------------------------------------------
-----------|2-----------------------------------------------------------------
-----------|2-----------------------------------------------------------------
 Last Chord                                                                   

---------------------------------|-----------------|----------------|---------
---------------------------------|-----------------|---0--0---------|---------
---------------------------------|----0--0---0---0-|5---5----0---0--|---------
---------------------------------|-7---7----7--7--7|--------3-32----|---------
---------------------------------|-----------------|--------------3-|---------
---------------------------------|-----------------|----------------|---------
 Overdubs: Clean Guitar.  Riff 7   1 + 2 + 3 + 4 +  1 + 2 + 3 + 4 +           

-------------------|----------------|-----------------------------------------
-------------------|----------------|-----------------------------------------
-------------------|------0---------|-----------------------------------------
-------------------|----0-----6-----|-----------------------------------------
-------------------|--2---------5-2-|-----------------------------------------
-------------------|2---------------|-----------------------------------------
 Overdub Riff Eight 1 + 2 + 3 + 4 +                                           

-------------------|----------------|-----------------------------------------
-------------------|----------------|-----------------------------------------
-------------------|------0---------|-----------------------------------------
-------------------|----4-----4-----|-----------------------------------------
-------------------|--4---------4---|-----------------------------------------
-------------------|4-------------3-|-----------------------------------------
 Overdub Riff Nine  1 + 2 + 3 + 4 +                                           

------------------|----------------|------------------------------------------
------------------|----------------|------------------------------------------
------------------|------0---------|------------------------------------------
------------------|----6-----6-----|------------------------------------------
------------------|2-5---------5-2-|------------------------------------------
------------------|----------------|------------------------------------------
 Overdub Riff Ten  1 + 2 + 3 + 4 +                                            





Comments


Popular Strapping Young Lad tabs & chords
Devour 1 Bass Tabs
Love? Bass Tabs
Aaa Tabs
Almost Again Tabs
Devour Tabs
Far Beyond Metal 2 Tabs
Polyphony 1 Tabs
Satans Ice Cream Truck Tabs
Skeksis Tabs
Underneath The Waves Tabs


Song lyrics



↑ Back to top | Tablatures and chords are parodies/interpretations of the original songs. You may use it for private study, scholarship, research or language learning purposes only
© 2014 AZChords.com Contact us | Privacy policy | DMCA | Add/correct tabs | Request tabs | Top 50 tabs