>
 >
Far Beyond Metal

Far Beyond Metal Bass Tabs

Strapping Young Lad - Far Beyond Metal chords, tabs, tablatures, lyrics

Guitar lessons | Add/correct | Request | Top 50 tabs Artists:  A B C D E F G H I J K L M N O P Q R S T U V W X Y Z 0-9

Far Beyond Metal Bass Tabs – Strapping Young Lad

CD, Sheet music, Poster

Do you like Far Beyond Metal? Share with your friends now
Bass TabsTabsTabs v2
     S S S S S S E.  S S S    S S S E.  S S S E.      S S S S S S E.  S S S  
F||------------------------|-----------------------|------------------------|
C||------------------------|-----------------------|------------------------|
G||------------------------|-----------------------|------------------------|
C||--0-0-0-0-0-0-3---0-0-0-|--0-0-0-5---0-0-0-3b---|--0-0-0-0-0-0-3---0-0-0-|


  S S S E.  S  S  S S  S  S    S S S S S S E.  S S S    S S S E.  S S S E.    
----------------------------|------------------------|-----------------------|
----------------------------|------------------------|-----------------------|
--------------------0h-3h-5-|------------------------|-----------------------|
--0-0-0-5---0h-3h-5---------|--0-0-0-0-0-0-3---0-0-0-|--0-0-0-5---0-0-0-3b---|


  S S S S S S E.  S S S    S S S E.  Q.        S S S S S S S  S S S S S  
------------------------|-------------------|---------------------------|
------------------------|-------------------|---------------------------|
------------------------|-------------------|---------------------------|
--0-0-0-0-0-0-3---0-0-0-|--0-0-0-5---L------|--0-0-0-0-0-0-3p-0-0-0-0-0-|


  S S S S  S S S S S S S S    S S S S S S S  S S S S S  
---------------------------|---------------------------|
---------------------------|---------------------------|
---------------------------|---------------------------|
--0-0-0-5p-0-0-0-0-0-3-2-3-|--0-0-0-0-0-0-3p-0-0-0-0-0-|


  S S S S  S S S  S  S S  S  S    S S S S S S S  S S S S S  
-------------------------------|---------------------------|
-------------------------------|---------------------------|
-----------------------0h-3h-5-|---------------------------|
--0-0-0-5p-0-0-0h-3h-5---------|--0-0-0-0-0-0-3p-0-0-0-0-0-|


  S S S S  S S S S S S S S    S S S S S S S  S S S S S    H        S E.   
---------------------------|---------------------------|-----------------|
---------------------------|---------------------------|-----------------|
---------------------------|---------------------------|-----------------|
--0-0-0-5p-0-0-0-0-0-3-2-3-|--0-0-0-0-0-0-3p-0-0-0-0-0-|--3--------L-3---|


  S S S S S S E.  S S S    S S S E.  S S S E.      S S S S S S E.  S S S  
------------------------|-----------------------|------------------------|
------------------------|-----------------------|------------------------|
------------------------|-----------------------|------------------------|
--0-0-0-0-0-0-3---0-0-0-|--0-0-0-5---0-0-0-3b---|--0-0-0-0-0-0-3---0-0-0-|


  S S S E.  S  S  S S  S  S    S S S S S S E.  S S S    S S S E.  S S S E.    
----------------------------|------------------------|-----------------------|
----------------------------|------------------------|-----------------------|
--------------------0h-3h-5-|------------------------|-----------------------|
--0-0-0-5---0h-3h-5---------|--0-0-0-0-0-0-3---0-0-0-|--0-0-0-5---0-0-0-3b---|


  S S S S S S E.  S S S    S S S E.  S  S  S S  S  S  
------------------------|----------------------------|
------------------------|----------------------------|
------------------------|--------------------0h-3h-5-|
--0-0-0-0-0-0-3---0-0-0-|--0-0-0-5---0h-3h-5---------|


  S S S S S S S  S   S  S  S   S    S  S   S  S  S   S S  S   S  S  S   S  
---------------------------------|----------------------------------------|
---------------------------------|----------------------------------------|
-----------------------12--------|-----------11-----------------10--------|
--0-0-0-0-0-0-0-12h-15----15p-12-|--0-11h-14----14p-11-0-10h-13----13p-10-|


  S S S S S S S  S   S  S  S   S    S  S   S  S  S   S S  S   S  S  S   S  
---------------------------------|----------------------------------------|
---------------------------------|----------------------------------------|
-----------------------12--------|-----------11-----------------10--------|
--0-0-0-0-0-0-0-12h-15----15p-12-|--0-11h-14----14p-11-0-10h-13----13p-10-|


  E.  E.  S  S   S  S  S   S    S  S   S  S  S   S S  S   S  S  S   S  
-----------------------------|----------------------------------------|
-----------------------------|----------------------------------------|
-------------------12--------|-----------11-----------------10--------|
--0---0---0-12h-15----15p-12-|--0-11h-14----14p-11-0-10h-13----13p-10-|


  E.  E.  S  S   S  S  S   S    S  S   S  S  S   S S  S   S  S  S   S  
-----------------------------|----------------------------------------|
-----------------------------|----------------------------------------|
-------------------12--------|-----------11-----------------10--------|
--0---0---0-12h-15----15p-12-|--0-11h-14----14p-11-0-10h-13----13p-10-|


  E.  S S S E.  S S S     E  E  E  E  E  E     E.  S S S S S S S S S  
-----------------------|--------------------|------------------------|
-----------------------|--------------------|------------------------|
-----------------------|--------------------|------------------------|
--3---0-0-0-3---0-0-0S-|--8--8--8--7--7--7--|--0---0-0-0-0-0-0-0-0-0-|


  S S S S S S S S S S S S    E.  S S S S S S S S S    S S S S S S S S S S S S  
--------------------------|------------------------|--------------------------|
--------------------------|------------------------|--------------------------|
--------------------------|------------------------|--------------------------|
--0-0-0-0-0-0-0-0-0-6-6-6-|--0---0---0-0-0-0-0-0-0-|--0-0-0-0-0-0-6-6-6-6-5-6-|


  E.  S S S S S S S S S    S S S S S S S S S S S S    E.  S S S S S S S S S  
------------------------|--------------------------|------------------------|
------------------------|--------------------------|------------------------|
------------------------|--------------------------|------------------------|
--0---0-0-0-0-0-0-0-0-0-|--0-0-0-0-0-0-0-0-0-6-6-6-|--0---0---0-0-0-0-0-0-0-|


  H.              S S S S S S E.  S S S    S S S E.  S S S E.    
---------------|------------------------|-----------------------|
---------------|------------------------|-----------------------|
---------------|------------------------|-----------------------|
--3------------|--0---0-0-0-0-3---0-0-0-|--0-0-0-5---0-0-0-3b---|


  S S S S S S E.  S S S    S S S E.  S  S  S S  S  S    S S S S S S E.  S S S  
------------------------|----------------------------|------------------------|
------------------------|----------------------------|------------------------|
------------------------|--------------------0h-3h-5-|------------------------|
--0-0-0-0-0-0-3---0-0-0-|--0-0-0-5---0h-3h-5---------|--0-0-0-0-0-0-3---0-0-0-|


  S S S E.  S S S E.      S S S S S S E.  S S S    S S S E.  S  S  S S  S  S  
-----------------------|------------------------|----------------------------|
-----------------------|------------------------|----------------------------|
-----------------------|------------------------|--------------------0h-3h-5-|
--0-0-0-5---0-0-0-3b---|--0-0-0-0-0-0-3---0-0-0-|--0-0-0-5---0h-3h-5---------|


  S S S S S S S S S S S S    E.  S S S S S S S S S    S S S S S S S S S S S S  
--------------------------|------------------------|--------------------------|
--------------------------|------------------------|--------------------------|
--------------------------|------------------------|--------------------------|
--0-0-0-0---0---0---0---0-|--0---0-0-0-0-0-0-0-0-0-|--0-0-0-0-0-0-0-0-0-6-6-6-|


  E.  S S S S S S S S S    S S S S S S S S S S S S    E.  S S S S S S S S S  
------------------------|--------------------------|------------------------|
------------------------|--------------------------|------------------------|
------------------------|--------------------------|------------------------|
--0---0---0-0-0-0-0-0-0-|--0-0-0-0-0-0-6-6-6-6-5-6-|--0---0-0-0-0-0-0-0-0-0-|


  S S S S S S S S S S S S    E.  S S S S S S S S S    H.            
--------------------------|------------------------|---------------|
--------------------------|------------------------|---------------|
--------------------------|------------------------|---------------|
--0-0-0-0-0-0-0-0-0-6-6-6-|--0---0---0-0-0-0-0-0-0-|--3------------|


  S S S S S S E.  S S S    S S S E.  S S S E.      S S S S S S E.  S S S  
------------------------|-----------------------|------------------------|
------------------------|-----------------------|------------------------|
------------------------|-----------------------|------------------------|
--0-0-0-0-0-0-3---0-0-0-|--0-0-0-5---0-0-0-3b---|--0-0-0-0-0-0-3---0-0-0-|


  S S S E.  S  S  S S  S  S    S S S S S S E.  S S S    S S S E.  S S S E.    
----------------------------|------------------------|-----------------------|
----------------------------|------------------------|-----------------------|
--------------------0h-3h-5-|------------------------|-----------------------|
--0-0-0-5---0h-3h-5---------|--0-0-0-0-0-0-3---0-0-0-|--0-0-0-5---0-0-0-3b---|


  S S S S S S E.  S S S    S S S E.  S  S  S S  S  S  
------------------------|----------------------------|
------------------------|----------------------------|
------------------------|--------------------0h-3h-5-|
--0-0-0-0-0-0-3---0-0-0-|--0-0-0-5---0h-3h-5---------|


  S S S S S S S  S   S  S  S   S    S  S   S  S  S   S S  S   S  S  S   S  
---------------------------------|----------------------------------------|
---------------------------------|----------------------------------------|
-----------------------12--------|-----------11-----------------10--------|
--0-0-0-0-0-0-0-12h-15----15p-12-|--0-11h-14----14p-11-0-10h-13----13p-10-|


  S S S S S S S  S   S  S  S   S    S  S   S  S  S   S S  S   S  S  S   S  
---------------------------------|----------------------------------------|
---------------------------------|----------------------------------------|
-----------------------12--------|-----------11-----------------10--------|
--0-0-0-0-0-0-0-12h-15----15p-12-|--0-11h-14----14p-11-0-10h-13----13p-10-|


  E.  E.  S  S   S  S  S   S    S  S   S  S  S   S S  S   S  S  S   S  
-----------------------------|----------------------------------------|
-----------------------------|----------------------------------------|
-------------------12--------|-----------11-----------------10--------|
--0---0---0-12h-15----15p-12-|--0-11h-14----14p-11-0-10h-13----13p-10-|


  E.  E.  S  S   S  S  S   S    S  S   S  S  S   S S  S   S  S  S   S  
-----------------------------|----------------------------------------|
-----------------------------|----------------------------------------|
-------------------12--------|-----------11-----------------10--------|
--0---0---0-12h-15----15p-12-|--0-11h-14----14p-11-0-10h-13----13p-10-|


  E.  S S S E.  S S S     E  E  E  E  E  E     H.              H.            
-----------------------|--------------------|---------------|---------------|
-----------------------|--------------------|---------------|---------------|
-----------------------|--------------------|---------------|---------------|
--3---0-0-0-3---0-0-0S-|--8--8--8--7--7--7--|--0------------|--3------------|


  H.              E.   E.  Q.        H.              H.            
---------------|------------------|---------------|---------------|
---------------|------------------|---------------|---------------|
---------------|------------------|---------------|---------------|
--8------------|--7----x----------|--0------------|--3------------|


  H.              E.  E.  E.  E.     H.              H.            
---------------|------------------|---------------|---------------|
---------------|------------------|---------------|---------------|
---------------|------------------|---------------|---------------|
--8------------|--7---5---3---2---|--0------------|--3------------|


  H.              H.              Q.     Q.        Q.     Q.      
---------------|---------------|----------------|----------------|
---------------|---------------|----------------|----------------|
---------------|---------------|----------------|----------------|
--8------------|--7------------|--5------5------|--5------5------|


  H.              E.  E.  E.  E.     E  S S S S E  S S S S  
---------------|------------------|------------------------|
---------------|------------------|------------------------|
---------------|------------------|------------------------|
--7------------|--7---5---3---2---|--0--0-0-0-0-0--0-0-0-0-|


  E  S S S S E  S S S S    E  S S S S E  S S S S    E  S S S S E   Q      
------------------------|------------------------|-----------------------|
------------------------|------------------------|-----------------------|
------------------------|------------------------|-----------------------|
--6--6-6-6-6-6--6-6-6-6-|--0--0-0-0-0-0--0-0-0-0-|--6--6-6-6-6-6--14\----|


  S S S S S S S S S S S S    S S S S S S S S S S S S  
--------------------------|--------------------------|
--------------------------|--------------------------|
--5-----------2-----------|--5-----------2-----------|
----6-5-0-5-6---3-2-0-2-3-|----6-5-0-5-6---3-2-0-2-3-|


  S S S S S S S S S S S S    S S S S S S S S S E.     S S S S S S S S S S S S  
--------------------------|------------------------|--------------------------|
--------------------------|------------------------|--------------------------|
--5-----------2-----------|--5-----------2---------|--5-----------2-----------|
----6-5-0-5-6---3-2-0-2-3-|----6-5-0-5-6---3-2-3---|----6-5-0-5-6---3-2-0-2-3-|


                                                                    PM   PM    
  S S S S S S S S S S S S    S S S S S S S S S S S S    S S S S S S E  S E  S  
--------------------------|--------------------------|------------------------|
--------------------------|--------------------------|------------------------|
--5-----------2-----------|--5-----------2-----------|--5-----2---------------|
----6-5-0-5-6---3-2-0-2-3-|----6-5-0-5-6---3-2-0-2-3-|----6-5---3-2-0----0----|


  E  S S S S E  S S S S    E  S S S S E  S S S S    E  S S S S E  S S S S  
------------------------|------------------------|------------------------|
------------------------|------------------------|------------------------|
------------------------|------------------------|------------------------|
--0--0-0-0-0-0--0-0-0-0-|--0--0-0-0-0-0--0-0-0-0-|--0--0-0-0-0-0--0-0-0-0-|


  E  S S S S E  S S S S    E  S S S S E  S S S S    E  S S S S E  S S S S  
------------------------|------------------------|------------------------|
------------------------|------------------------|------------------------|
------------------------|------------------------|------------------------|
--0--0-0-0-0-0--0-0-0-0-|--0--0-0-0-0-0--0-0-0-0-|--0--0-0-0-0-0--0-0-0-0-|


  E  S S S S E  S S S S    S S S S S S S S S S S S    E.  S S S E.  S S S  
------------------------|--------------------------|----------------------|
------------------------|--------------------------|----------------------|
------------------------|--5-5-5-5-5-5-5-5-5-5-5-5-|----------------------|
--0--0-0-0-0-0--0-0-0-0-|--------------------------|--0---0-0-0-0---0-0-0-|


  E.  S S S E.  S S S    E.  S S S E.  S S S    E.   H         S  
----------------------|----------------------|-------------------|
----------------------|----------------------|-------------------|
----------------------|----------------------|-------------------|
--3---3-3-3-3---3-3-3-|--8---8-8-8-8---8-8-8-|--7---12\--------L-|


  E.  S S S E.  S S S    E.  S S S E.  S S S    E.  S S S E.  S S S  
----------------------|----------------------|----------------------|
----------------------|----------------------|----------------------|
----------------------|----------------------|----------------------|
--0---0-0-0-0---0-0-0-|--3---3-3-3-3---3-3-3-|--8---8-8-8-8---8-8-8-|


  S S S S S S S S S S S S    E.  S S S E.  S S S    E.  S S S E.  S S S  
--------------------------|----------------------|----------------------|
--------------------------|----------------------|----------------------|
--------------------------|----------------------|----------------------|
--2-2-2-5-5-5-7-7-7-7-7-7-|--0---0-0-0-0---0-0-0-|--3---3-3-3-3---3-3-3-|


  E.  S S S E.  S S S    E.  S S S E.  S S S    E.  S S S E.  S S S  
----------------------|----------------------|----------------------|
----------------------|----------------------|----------------------|
----------------------|----------------------|----------------------|
--8---8-8-8-8---8-8-8-|--7---7-7-7-7---7-7-7-|--0---0-0-0-0---0-0-0-|


  E.  S S S E.  S S S    E  H        E     H        Q       H        Q     
----------------------|-----------------|----------------|----------------|
----------------------|-----------------|----------------|----------------|
----------------------|-----------------|----------------|----------------|
--0---0-0-0-0---0-0-0-|--3--------------|----------------|----------------|


                     PM PM       PM                               
  H        Q       S E  E  S S S Q.        E.  S S S S S S S S S  
----------------|-----------------------|------------------------|
----------------|-----------------------|------------------------|
----------------|-----------------------|------------------------|
----------------|--0-0--0--0-0-0-0------|--0---0-0-0-0-0-0-0-0-0-|


  S S S S S S S S S S S S    E.  S S S S S S S S S    S S S S S S S S S S S S  
--------------------------|------------------------|--------------------------|
--------------------------|------------------------|--------------------------|
--------------------------|------------------------|--------------------------|
--0-0-0-0-0-0-0-0-0-6-6-6-|--0---0---0-0-0-0-0-0-0-|--0-0-0-0-0-0-6-6-6-6-5-6-|


  E.  S S S S S S S S S    S S S S S S S S S S S S    E.  S S S S S S S S S  
------------------------|--------------------------|------------------------|
------------------------|--------------------------|------------------------|
------------------------|--------------------------|------------------------|
--0---0-0-0-0-0-0-0-0-0-|--0-0-0-0-0-0-0-0-0-6-6-6-|--0---0---0-0-0-0-0-0-0-|


  E  E  E  E  E  E     S S S S S S E.  S S S    S S S E.  S S S E.    
--------------------|------------------------|-----------------------|
--------------------|------------------------|-----------------------|
--------------------|------------------------|-----------------------|
--0--0--0--0--0--0--|--0-0-0-0-0-0-3---0-0-0-|--0-0-0-5---0-0-0-3b---|


  S S S S S S E.  S S S    S S S E.  S  S  S S  S  S    S S S S S S E.  S S S  
------------------------|----------------------------|------------------------|
------------------------|----------------------------|------------------------|
------------------------|--------------------0h-3h-5-|------------------------|
--0-0-0-0-0-0-3---0-0-0-|--0-0-0-5---0h-3h-5---------|--0-0-0-0-0-0-3---0-0-0-|


  S S S E.  S S S E.      S S S S S S E.  S S S    S S S E.  Q.      
-----------------------|------------------------|-------------------|
-----------------------|------------------------|-------------------|
-----------------------|------------------------|-------------------|
--0-0-0-5---0-0-0-3b---|--0-0-0-0-0-0-3---0-0-0-|--0-0-0-5---L------|


  S S S S S S S  S   S  S  S   S    S  S   S  S  S   S S  S   S  S  S   S  
---------------------------------|----------------------------------------|
---------------------------------|----------------------------------------|
-----------------------12--------|-----------11-----------------10--------|
--0-0-0-0-0-0-0-12h-15----15p-12-|--0-11h-14----14p-11-0-10h-13----13p-10-|


  S S S S S S S  S   S  S  S   S    S  S   S  S  S   S S  S   S  S  S   S  
---------------------------------|----------------------------------------|
---------------------------------|----------------------------------------|
-----------------------12--------|-----------11-----------------10--------|
--0-0-0-0-0-0-0-12h-15----15p-12-|--0-11h-14----14p-11-0-10h-13----13p-10-|


  E.  E.  S  S   S  S  S   S    S  S   S  S  S   S S  S   S  S  S   S  
-----------------------------|----------------------------------------|
-----------------------------|----------------------------------------|
-------------------12--------|-----------11-----------------10--------|
--0---0---0-12h-15----15p-12-|--0-11h-14----14p-11-0-10h-13----13p-10-|


  E.  E.  S  S   S  S  S   S    S  S   S  S  S   S S  S   S  S  S   S  
-----------------------------|----------------------------------------|
-----------------------------|----------------------------------------|
-------------------12--------|-----------11-----------------10--------|
--0---0---0-12h-15----15p-12-|--0-11h-14----14p-11-0-10h-13----13p-10-|


  E.  S S S E.  S S S     E  E  E  E  E  E     E.  S S S E.  S S S  
-----------------------|--------------------|----------------------|
-----------------------|--------------------|----------------------|
-----------------------|--------------------|----------------------|
--3---0-0-0-3---0-0-0S-|--8--8--8--7--7--7--|--3---0-0-0-3---0-0-0-|


  S S S S S S S S S S S S    H.              H.              H.            
--------------------------|---------------|---------------|---------------|
--------------------------|---------------|---------------|---------------|
--------------------------|---------------|---------------|---------------|
--3-3-3-2-2-2-7-7-7-5-5-5-|--0------------|--3------------|--8------------|


  E.   E.  Q.        H.              H.              H.            
------------------|---------------|---------------|---------------|
------------------|---------------|---------------|---------------|
------------------|---------------|---------------|---------------|
--7----x----------|--0------------|--3------------|--8------------|


  E.  E.  E.  E.     H.              H.              H.            
------------------|---------------|---------------|---------------|
------------------|---------------|---------------|---------------|
------------------|---------------|---------------|---------------|
--7---5---3---2---|--0------------|--3------------|--8------------|


  PM       PM                                                            
  E  S E.  E  S E.     Q.     Q.        Q.     Q.        E.  E.  Q.      
--------------------|----------------|----------------|-----------------|
--------------------|----------------|----------------|-----------------|
--------------------|----------------|----------------|-----------------|
--7--7-----7--7-----|--5------5------|--5------5------|--7---x----------|


  E.  E.  E.  E.     E  S S S S E  S S S S    E  S S S S E  S S S S  
------------------|------------------------|------------------------|
------------------|------------------------|------------------------|
------------------|------------------------|------------------------|
--7---5---3---2---|--0--0-0-0-0-0--0-0-0-0-|--6--6-6-6-6-6--6-6-6-6-|


  E  S S S S E  S S S S    E  S S S S E  S S S S    E  S S S S E  S S S S  
------------------------|------------------------|------------------------|
------------------------|------------------------|------------------------|
------------------------|------------------------|------------------------|
--0--0-0-0-0-0--0-0-0-0-|--6--6-6-6-6-6--6-6-6-6-|--0--0-0-0-0-0--0-0-0-0-|


                                                         PM PM                  
  E  S S S S E  S S S S     H.               E  E  E  E  E  E     E.  E.  Q     
------------------------|-----------------|--------------------|---------------|
------------------------|-----------------|--------------------|---------------|
------------------------|-----------------|--------------------|---------------|
--6--6-6-6-6-6--6-6-6-6-|--13\------------|--6--6--6--6--6--6--|--0---0--------|


  H        Q       H        Q       H        Q       H        Q       Q      
----------------|----------------|----------------|----------------|-------||
----------------|----------------|----------------|----------------|-------||
----------------|----------------|----------------|----------------|-------||
----------------|----------------|----------------|----------------|-------||




Duration Legend
---------------
W - whole
H - half
Q - quarter
E - 8th
S - 16th
T - 32nd
X - 64th
. - note dotted
|-n-|  - n-tuplets


Tablature Legend
----------------
L - tied note
x - dead note
g - grace note
(n) - ghost note
> - accentuded note
NH - natural harmonic
AH - artificial harmonic
TH - tapped harmonic
SH - semi harmonic
PH - pitch harmonic
h - hammer on
p - pull off
b - bend
br - bendRelease
pb - preBend
pbr - preBendRelease
brb - bendReleaseBend
\n/ - tremolo bar dip
\n - tremolo bar dive
-/n - tremolo bar Release up
/n\ - tremolo bar inverted dip
/n - tremolo bar return
-\n - tremolo bar Release down
S - shift slide
s - legato slide
/ -  slide into from below or out of upwards
\ -  slide into from above or out of downwards
~ - vibrato
W - wide vibrato
tr - trill
TP - tremolo picking
T - tapping
S - slap
P - pop
< - fade in
^ - brush up
v - brush down





Comments


Popular Strapping Young Lad tabs & chords
Skin Me Bass Tabs
Dire Tabs
Home Nucleonics Tabs
Love? Tabs
Oh My Fucking God 1 Tabs
Polyphony Tabs
Polyphony 1 Tabs
Relentless Tabs
Two Weeks Tabs
Underneath The Waves Tabs


Song lyrics



↑ Back to top | Tablatures and chords are parodies/interpretations of the original songs. You may use it for private study, scholarship, research or language learning purposes only
© 2014 AZChords.com Contact us | Privacy policy | DMCA | Add/correct tabs | Request tabs | Top 50 tabs