» » »

Critic Tabs (ver.1)

Artists:  A B C D E F G H I J K L M N O P Q R S T U V W X Y Z # 

Critic Tabs (ver.1)

Strapping Young Lad
Rating:
5/5 (1 vote)

Tabs too difficult? Try these video lessons and learn fast.
                
Tuning (Low to high): DADGBE *Dropped D tuning*
Riff 1
------------------------------------|-----------------------------------|
------------------------------------|-----------------------------------|
------------------------------------|-----------------------------------|
------------------------------------|-----------------------------------|
4--x--x--x--x--3--x--x--x--x--2--3--|-----------------------------------|
4--x--x--x--x--3--x--x--x--x--2--3--|-----------------------------------|


Alternate
------------------------------------------------|-----------------------|
------------------------------------------------|-----------------------|
------------------------------------------------|-----------------------|
------------------------------------------------|-----------------------|
4--x--x--1--x--x--3--x--x--0--x--x--2--x--3--x--|-----------------------|
4--x--x--1--x--x--3--x--x--0--x--x--2--x--3--x--|-----------------------|


Riff 2
------------------------------|-----------------------------------------|
------------------------------|-----------------------------------------|
------------------------------|-----------------------------------------|
------------------------------|-----------------------------------------|
1--0--1--0--1--0--1--0--1--0--|-----------------------------------------|
1--0--1--0--1--0--1--0--1--0--|-----------------------------------------|


Riff 3
------------------------------------------------|-----------------------|
------------------------------------------------|-----------------------|
------------------------------------------------|-----------------------|
------------------------------------0--0--0--0--|-----------------------|
------------------------------------------------|-----------------------|
6--0--0--4--0--0--6--0--0--4--0--0--------------|-----------------------|


Riff 4
------------------------|-----------------------------------------------|
------------------------|-----------------------------------------------|
------------------------|-----------------------------------------------|
------------------------|-----------------------------------------------|
2--2--2--2--2--2--2--2--|-----------------------------------------------|
2--2--2--2--2--2--2--2--|-----------------------------------------------|


Riff 5                                                   Roff 6
------------------------------------------------------|-----------|-----|
------------------------------------------------------|-----------|-----|
------------------------------------------------------|-----------|-----|
------------------------------------------------------|-----------|-----|
2--2--2--2--2--2--1--1--1--1--1--1--1--1--1--1--1--1--|--6--3--0--|-----|
2--2--2--2--2--2--1--1--1--1--1--1--1--1--1--1--1--1--|--6--3--0--|-----|


Riff 6a
---------------------|--------------------------------------------------|
---------------------|--------------------------------------------------|
---------------------|--------------------------------------------------|
---------------------|--------------------------------------------------|
0--0--0-----0--0--0--|--------------------------------------------------|
0--0--0--2--0--0--0--|--------------------------------------------------|


Riff 7
---------------------------------|--------------------------|
---------------------------------|--------------------------|
---------------------------------|--------------------------|
---------------------------------|--------------------------|
0-0-0-0-0-0-0-0---0-0-0-0-0-0-0--|--------------------------|
0-0-0-0-0-0-0-0---0-0-0-0-0-0-0--|--------------------------|


Riff 8
------------------------------------------------|-----------------------|
------------------------------------------------|-----------------------|
------------------------------------------------|-----------------------|
------------------------------------------------|-----------------------|
1--1--1--1--1--1--1--1--1--1--1--1--1--1--1--1--|-----------------------|
1--1--1--1--1--1--1--1--1--1--1--1--1--1--1--1--|-----------------------|


Riff 9
------------------------------------|-----------------------------------|
------------------------------------|-----------------------------------|
------------------------------------|-----------------------------------|
------------------------------------|-----------------------------------|
4--x--3--x--4--x--3--x--4--x--3--x--|-----------------------------------|
4--x--3--x--4--x--3--x--4--x--3--x--|-----------------------------------|
            
Tabs too difficult? Try these video lessons and learn fast.


comments powered by Disqus
↑ Back to top | Tablatures and chords are parodies/interpretations of the original songs. You may use it for private study, scholarship, research or language learning purposes only