>
 >
Aaa

Aaa Guitar Tabs

Strapping Young Lad - Aaa chords, tabs, tablatures, lyrics

Guitar lessons | Add/correct | Request | Top 50 tabs Artists:  A B C D E F G H I J K L M N O P Q R S T U V W X Y Z 0-9

Aaa Guitar Tabs – Strapping Young Lad

CD, Sheet music, Poster

Do you like Aaa? Share with your friends now
Tabs
Strapping Young Lad
City
AAA
Drop-A


B |-----------------------------|
Gb|-----------------------------|
D |-----------------------------|
A |-----------------------------|
E |---5-------5-------------5---|
A |-0---3-0-3---3---3-0-2/3---0-|
    - - - - - - -   - - - - - - 

B |-----------------------------|
Gb|-----------------------------|
D |-----------------------------|
A |-----------------------------|
E |---5-------5-------------5---|
A |-0---3-0-3---3---3-0-2/3---0-|

B |---|---------|---------------|
Gb|---|---------|---------------|
D |---|-19--13--|-19------------|
A |-0-|-X---X---|-X---00-3-00-1-|
E |-0-|-17--11--|-17--00-3-00-1-|
A |-0-|---------|-----00-3-00-1-|
                      --   --
B |-----------------------------|
Gb|-----------------------------|
D |-----------------------------|
A |---------------------------0-|
E |---5-------5-------------5-0-|
A |-0---3-0-3---3---3-0-2/3---0-|
                              -

B |-----------------------------|
Gb|-----------------------------|
D |-----------------------------|
A |-0---------------------------|
E |-0-5-------5-------------5---|
A |-0---3-0-3---3---3-0-2/3---0-|
    -

B |-------------|------------------------|--------------------|------------|
Gb|-------------|------------------------|--------------------|------------|
D |-13--11--17--|-13-/11-----------------|-13-----------------|-9----------|
A |-X---X---X---|-x--/X------------------|-X------------------|-X----------|
E |-11--9---15--|-11-/9--1-0-1-0-1-0-1-0-|-11-----------------|-7-00000000-|
A |-------------|--------1-0-1-0-1-0-1-0-|----000-000-000-000-|---00000000-|
                         - - - - - - - -      --- --- --- ---     --------

B |-----------------------------|
Gb|-----------------------------|
D |-----------------------------|
A |---------------------------0-|
E |---5-------5-------------5-0-|
A |-0---3-0-3---3---3-0-2/3---0-|
                              -

B |-----------------------------|
Gb|-----------------------------|
D |-----------------------------|
A |-0---------------------------|
E |-0-5-------5-------------5---|
A |-0---3-0-3---3---3-0-2/3---0-|
    -

B |-------------|------------------------|--------------------|------------|
Gb|-------------|------------------------|--------------------|------------|
D |-13--11--17--|-13-/11-----------------|-13-----------------|-9----------|
A |-X---X---X---|-x--/X------------------|-X------------------|-X----------|
E |-11--9---15--|-11-/9--1-0-1-0-1-0-1-0-|-11-----------------|-7-00000000-|
A |-------------|--------1-0-1-0-1-0-1-0-|----000-000-000-000-|---00000000-|
                         - - - - - - - -      --- --- --- ---     --------

B |---|---------|-----|
Gb|---|---------|-----|
D |---|-19--13--|-19--|
A |-0-|-X---X---|-X---|
E |-0-|-17--11--|-17--|
A |-0-|---------|-----|


B |----------|----------|
Gb|----------|----------|
D |------3-3-|----------|
A |------X-X-|------4-4-|
E |------1-1-|------X-X-|
A |-0000-----|-0000-4-4-|
    ----       ----

B |----------|----------|-----|
Gb|----------|----------|-----|
D |----------|----------|-----|
A |----------|----------|-----|
E |----------|----------|-3-2-|
A |-66666666-|-33333333-|-3-2-|
                          - -

B |----------------|-----|
Gb|----------------|-----|
D |----------------|-----|
A |----------------|-----|
E |----------------|-----|
A |-0---30---3/6-6-|-321-|


B |------------|-----|
Gb|------------|-----|
D |------------|-----|
A |--------555-|-----|
E |------------|-----|
A |-3---63-----|-321-|

B |----------------|-----|
Gb|----------------|-----|
D |----------------|-----|
A |----------------|-----|
E |----------------|-----|
A |-0---30---3/6-6-|-321-|

B |------------|-----|
Gb|------------|-----|
D |------------|-----|
A |--------555-|-----|
E |------------|-----|
A |-3---63-----|-345-|

B |------------|-----|
Gb|------------|-----|
D |------------|-----|
A |--------888-|-----|
E |------------|-----|
A |-6---96-----|-654-|

B |------------|-----|
Gb|------------|-----|
D |------------|-----|
A |--------555-|-----|
E |------------|-----|
A |-3---63-----|-321-|

B |----------------|-----|
Gb|----------------|-----|
D |----------------|-----|
A |----------------|-----|
E |----------------|-----|
A |-0---30---3/6-6-|-321-|

B |---|---------|-----|
Gb|---|---------|-----|
D |---|-19--13--|-19--|
A |-0-|-X---X---|-X---|
E |-0-|-17--11--|-17--|
A |-0-|---------|-----|

B |----------|----------|
Gb|----------|----------|
D |------3-3-|----------|
A |------X-X-|------4-4-|
E |------1-1-|------X-X-|
A |-0000-----|-0000-4-4-|
    ----       ----

B |---|
Gb|---|
D |-7-|
A |-X-|
E |-5-|
A |-0-|





Comments


Popular Strapping Young Lad tabs & chords
All Hail The New Flesh Tabs
Almost Again Tabs
Critic Tabs
Home Nucleonics Tabs
In The Rainy Season Tabs
Polyphony 1 Tabs
Relentless Tabs
Satans Ice Cream Truck Intro Tabs
Two Weeks Tabs
Wrong Side Tabs


Song lyrics



↑ Back to top | Tablatures and chords are parodies/interpretations of the original songs. You may use it for private study, scholarship, research or language learning purposes only
© 2014 AZChords.com Contact us | Privacy policy | DMCA | Add/correct tabs | Request tabs | Top 50 tabs