» » »

Take It Back Bass tabs (ver.1)

Artists:  A B C D E F G H I J K L M N O P Q R S T U V W X Y Z # 

Take It Back Bass tabs (ver.1)

Strait Up
Rating:
0/5 (0 votes)

Hard to play? Try these video lessons and learn fast.
                (1)
G---------------------------------| 
D---------------------------------|
A---------3-3-3-3-2-2-2-2-------|
E-0-0-0-0------------------1-1-1-1| 

G-------------------------------------|
D-------------------------------------|
A---------3-3-3-3-2-2-2-2-5-5-5-5-| 
E-0-0-0-0----------------------------|
            
Hard to play? Try these video lessons and learn fast. | Correct




comments powered by Disqus
↑ Back to top | Tablatures and chords are parodies/interpretations of the original songs. You may use it for private study, scholarship, research or language learning purposes only