» » »

Strait Up, Take It Back Tabs (ver.1)

Artists:  A B C D E F G H I J K L M N O P Q R S T U V W X Y Z # 

Take It Back Tabs (ver.1)

Strait Up Tabs
 Rating:
4/5 (4 votes)
Take It Back lessons Tabs too difficult? Try these video lessons and learn fast
1
                
INTRO (part a)
|-22---16-----------|
|-------------------|
|-----------5---5---|
|-------------------|
|-------------------| 
|-------------------| 
H.N |w/vib-|

PART1
|--------5-5555555-4-4-x------------------5-5555555-4-4-x-7-7777777-|
|-2-2-xx-5-5555555-4-4-x-3-3333333-2-2-xx-5-5555555-4-4-x-7-7777777-|
|-2-2-xx-3-3333333-2-2-x-3-3333333-2-2-xx-3-3333333-2-2-x-5-5555555-|
|-2-2-xx-----------------3-3333333-2-2-xx---------------------------| 
|--------5-5555555-4-4-x------------------5-5555555-------------------|
|-2-2-xx-5-5555555-4-4-x-3-3333333-2-2-xx-5-5555555-2-2-----3-2-5-023-|
|-2-2-xx-3-3333333-2-2-x-3-3333333-2-2-xx-3-3333333-2-2-----3-2-5-023-|
|-2-2-xx-----------------3-3333333-2-2-xx-----------2-2-222-3-2-5-023-|
pm-|

PART2
|----------------------------------|
|-2-----3-2-0-2-32-------3-2-5-023-|
|-2-----3-2-0-2-32-------3-2-5-023-| x4
|-2-220-3-2-0-2-32-22220-3-2-5-023-|
pm pm---|

INTERMEDE
|---------12----------------------------------|
|------12------12(bends)----------------------|
|-10----------------------10--8--10p8---------|
|-------------------------------------9(b1/4)-|
|---------------------------------------------|
|---------------------------------------------| 

PART3
|-7/9999999-7/9999999-6-6xx-5-555555-|
|---------------------6-6xx-5-555555-|
|-7/9999999-7/9999999-6-6xx-5-555555-| x3
then
|-7/9999999-7/9999999-6-6xx-5-|
|---------------------6-6xx-5-|
|-7/9999999-7/9999999-6-6xx-5-|

PART4(w/wha)
|-3-3-2---3-2-5-2-|
|-----------------|
|-3-3-2---3-2-5-2-| x7
then
|-3-3-2---3-2-5-023-|
|---------3-2-5-023-|
|-3-3-2---3-2-5-023-|
w/wha--|
            
Submit corrections

comments powered by Disqus
↑ Back to top | Strait Up Tabs for Take It Back. Lyrics for acoustic guitar and electric guitar. 1 Tablatures and chords are parodies/interpretations of the original songs. You may use it for private study, scholarship, research or language learning purposes only