» » »

Strait Up, I Know Where You're At Tabs (ver.1)

Artists:  A B C D E F G H I J K L M N O P Q R S T U V W X Y Z # 

I Know Where You're At Tabs (ver.1)

Strait Up Tabs
 Rating:
4/5 (4 votes)
I Know Where You're At lessons Tabs too difficult? Try these video lessons and learn fast
                D drop
Entering
|-------------------|
|-5---/6/10---/15---| x4
|-------------------| 
A
Guit1
|----------------10--------------------|
|-10h11p10------------10h11p10---------|
|----------11-10---------------11-10---| x1
|--------------------------------------| 
Guit2
|-8-8---8-8---8-8---8-8---|
|-8-8---8-8---8-8---8-8---|
|-------------------------|
|-6-6---6-6---6-6---6-6---| w/heavy wah
|-------------------------| 
B
|----5h6p5------5h6p5-6-(5----)-|
|-5----------6----------(--6-5)-|
|-5----------6------------------|
|-3----------4------------------| x4 guit1=rhythm guit2=single notes
|-------------------------------| 
C
|----11h12p11------11h12p11-12-|
|------------------------------|
|-5-------------6--------------|
|-5-------------6--------------|
|-3-------------4--------------| 2x
|------------------------------| 
then
|-8---|
|-8---|
|-----|
|-6---| x/wha
|-----| 
D
|-8h10-10-8h10---------------------8h10-10-8h10---------------13-11-
|-8h10-10-8h10-11-10-11-10-8-10-11-8h10-10-8h10-11-10-11-10-8-13-11-
|-8h10-10-8h10---------------------8h10-10-8h10---------------13-11- 

|-8h10-10-8h10-------11111111-11111111-------
|-8h10-10-8h10-11-10-11111111-11111111-10-11-
|-8h10-10-8h10-------11111111-11111111-------

|-8h10-10-8h10---------------13-11-|
|-8h10-10-8h10-11-10-11-10-8-13-11-|
|-8h10-10-8h10---------------13-11-| 
E
|-3-9-3-1-3-9-1-3-9-3-1-3-|
|-3-9-3-1-3-9-1-3-9-3-1-3-|
|-3-9-3-1-3-9-1-3-9-3-1-3-| 
F
|-6-4---| |-15--------17------15-18-------15-17------18-17-|
|-6-4---| |------------------------------------------------| repeat
|-6-4---| |-15--------17------15-18-------15-17------18-17-| twice 
w/ytrem picks----------------------------------| 
G

|-3-3-33-33-3333-6-6-66-66-6666-13-13-1313-1313-13131313-
|-3-3-33-33-3333-6-6-66-66-6666-13-13-1313-1313-13131313-
|-3-3-33-33-3333-6-6-66-66-6666-13-13-1313-1313-13131313-

|-12-12-1212-1212-12121212-3-3-33-33-3333-6-6-66-66-6666-
|-12-12-1212-1212-12121212-3-3-33-33-3333-6-6-66-66-6666-
|-12-12-1212-1212-12121212-3-3-33-33-3333-6-6-66-66-6666-

|-13-13-1313-1313-13131313-12-12-1212\11-11111111111111-|
|-13-13-1313-1313-13131313-12-12-1212\11-11111111111111-|
|-13-13-1313-1313-13131313-12-12-1212\11-11111111111111-| 
H
|-3-9-3-1-3-9-3-9-3-1-3-9-3-9-3-1-3-9-3-9-3-1-3-|
|-3-9-3-1-3-9-3-9-3-1-3-9-3-9-3-1-3-9-3-9-3-1-3-|
|-3-9-3-1-3-9-3-9-3-1-3-9-3-9-3-1-3-9-3-9-3-1-3-|
I
|-4-3-1-3--4-3-1-3--4-3-1--4-3-1-3--4-3-1-3--4--- 
|-4-3-1-3--4-3-1-3--4-3-1--4-3-1-3--4-3-1-3--4--- 
|-4-3-1-3--4-3-1-3--4-3-1--4-3-1-3--4-3-1-3--4--- 

|-4-3-1-3--4-3-1-3--4-3-1--4-3-1-3--4-3-1-3-|
|-4-3-1-3--4-3-1-3--4-3-1--4-3-1-3--4-3-1-3-|
|-4-3-1-3--4-3-1-3--4-3-1--4-3-1-3--4-3-1-3-|
            
Submit corrections

comments powered by Disqus
↑ Back to top | Strait Up Tabs for I Know Where You're At. Lyrics for acoustic guitar and electric guitar. Tablatures and chords are parodies/interpretations of the original songs. You may use it for private study, scholarship, research or language learning purposes only