>
 >
Funeral Flights

Funeral Flights Guitar Tabs

Strait Up - Funeral Flights chords, tabs, tablatures, lyrics

Guitar lessons | Add/correct | Request | Top 50 tabs Artists:  A B C D E F G H I J K L M N O P Q R S T U V W X Y Z 0-9

Funeral Flights Guitar Tabs – Strait Up

CD, Sheet music, Poster

Do you like Funeral Flights? Share with your friends now
Tabs
A1 A2 
|-----------------10b-| |-------------10(up&down)-10-|
|-7-------------------| |-7--------------------------|
|-5-------------------| |-5--------------------------|
|-0-------------------| |-0--------------------------|
w/flange w/flange
and wha and wha 
B
|-------------------------------------8----10-10-
|-0-030-3h5/6-0-030-3h5/6-0-030-3h5/6-8-00-10-10-
|-0-030-3h5/6-0-030-3h5/6-0-030-3h5/6-6-00-8--8--
|-0-030-3h5/6-0-030-3h5/6-0-030-3h5/6---00------- 

|-------------------------------------8-------------
|-0-030-3h5/6-0-030-3h5/6-0-030-3h5/6-8-------------
|-0-030-3h5/6-0-030-3h5/6-0-030-3h5/6-6-5-3-0-5-3---
|-0-030-3h5/6-0-030-3h5/6-0-030-3h5/6-------------3- 

|-------------------------------------8----10-10-
|-0-030-3h5/6-0-030-3h5/6-0-030-3h5/6-8-00-10-10-
|-0-030-3h5/6-0-030-3h5/6-0-030-3h5/6-6-00-8--8--
|-0-030-3h5/6-0-030-3h5/6-0-030-3h5/6---00------- 

|-------------------------------------8-----------------------------|
|-0-030-3h5/6-0-030-3h5/6-0-030-3h5/6-8-----------------------------|
|-0-030-3h5/6-0-030-3h5/6-0-030-3h5/6-6-5-3-0-5-3-0---3-0-----------|
|-0-030-3h5/6-0-030-3h5/6-0-030-3h5/6---------------3-----3-0-6-5-3-|
C
|---10x-1010---8-x-88---10x-1010---6666-555-|
|-0-10x-1010-0-8-x-88-0-10x-1010-0-6666-555-|
|-0-8-x-8-8--0-6-x-66-0-8-x-8-8--0-4444-333-|
|-0----------0--------0----------0----------|

|-------10---8-x-88---10x-1010---6666-555-|
|-0-0-0-10-0-8-x-88-0-10x-1010-0-6666-555-|
|-0-0-0-8--0-6-x-66-0-8-x-8-8--0-4444-333-|
|-0-0-0----0--------0----------0----------| 
* * *
|---10x-1010---8-x-88---10x-1010---6666-555-|
|-0-10x-1010-0-8-x-88-0-10x-1010-0-6666-555-|
|-0-8-x-8-8--0-6-x-66-0-8-x-8-8--0-4444-333-|
|-0----------0--------0----------0----------|

|-------10---8-x-88---10x-1010---6666-555-|
|-0-0-0-10-0-8-x-88-0-10x-1010-0-6666-555-|
|-0-0-0-8--0-6-x-66-0-8-x-8-8--0-4444-333-|
|-0-0-0----0--------0----------0----------|
* * *
D play twice

Guit1
|-----------------------------------------------------------|
|-5-9-6-5-6-9-6-5--9-6-5-6-9-6-5--9-6-5-6-9-6-5--9-6-5-6-9--|
|-----------------------------------------------------------| 

Guit2
|-0-------------0--0-----------0-----------------4-1-0-1-4--|
|-0-------------0--0-----------0-----------------4-1-0-1-4--|
|-0-------------0--0-----------0-----------------4-1-0-1-4--|

E play twice
|-04101410-4101410-4101410-41014--04101410-4101410-4101410-4101---|
|-04101410-4101410-4101410-41014--04101410-4101410-4101410-4101---|
|-04101410-4101410-4101410-41014--04101410-4101410-4101410-41016v-| 

F
|-04101410-4101410-4101410-41014-|-04101410-41014-10----------|
|-04101410-4101410-4101410-41014-|-04101410-41014-10-55555555-|
|-04101410-4101410-4101410-41014-|-04101410-41014-10----------|
unknown effect





Comments


Popular Strait Up tabs & chords
Angel Son Tabs
Angels Son 2 Tabs
Catch A Spirit Tabs
Divided Tabs
I Know Where You're At Tabs
Requiem Tabs
Sad Air 1 Tabs
Sad Air 2 Tabs
Starlit Eyes Tabs
Take It Back Tabs


Song lyrics



↑ Back to top | Tablatures and chords are parodies/interpretations of the original songs. You may use it for private study, scholarship, research or language learning purposes only
© 2014 AZChords.com Contact us | Privacy policy | DMCA | Add/correct tabs | Request tabs | Top 50 tabs