» » »

Strait Up, Divided Tabs (ver.1)

Artists:  A B C D E F G H I J K L M N O P Q R S T U V W X Y Z # 

Divided Tabs (ver.1)

Strait Up Tabs
 Rating:
4/5 (4 votes)
Divided lessons Tabs too difficult? Try these video lessons and learn fast
                Tuning=dadgbe
Entering
|-88888888-88888888-88888888-88888-|
|-66666666-66666666-66666666-66666-|
|-66666666-66666666-66666666-66666-|
|-66666666-66666666-66666666-66666-|
w/heavy flange--------------------|
Verses (chords)
|------------------8-with---|----------------------|
|------------------8-bends--|----------------------|
|-1-------9--------8--------|-1-------9------------|
|-1-------9--------6--------|-1-------9------------|
|-1-------9-----------------|-1-------9------------|
Pre-Chorus
|--------------------------------------------------------6-6-66-9-9-99-|
|--------------------------------------------------------6-6-66-9-9-99-|
|-1114441-6614441-1114441-6619991-1114441-6614441-111444-6-6-66-9-9-99-| 
pm------------------------------------------------------| 
Chorus1
|---8-8-xx--------------xx---------8-8-xx---------------------|
|-1-8-8-xx-4-4-4-1--6-6-xx-4-4-4-1-8-8-xx-4-4-4-6-6-66-9-9-99-|
|-1-6-6-xx-4-4-4-1--6-6-xx-4-4-4-1-6-6-xx-4-4-4-6-6-66-9-9-99-|
|-1-----xx-4-4-4-1--6-6-xx-4-4-4-1-----xx-4-4-4-6-6-66-9-9-99-| 

|---8-8-xx--------------xx---------8-8-xx-------------------------|
|-1-8-8-xx-4-4-4-1--6-6-xx-4-4-4-1-8-8-xx-4-4-4-5-555555-6-666666-|
|-1-6-6-xx-4-4-4-1--6-6-xx-4-4-4-1-6-6-xx-4-4-4-3-333333-4-444444-|
|-1-----xx-4-4-4-1--6-6-xx-4-4-4-1-----xx-4-4-4-------------------| 

|-8-88888888-88888-|
|-6-66666666-66666-|
|-6-66666666-66666-|
|-6-66666666-66666-|
w/flange----------|
Chorus2
|---8-8-xx--------------xx---------8-8-xx---------------------|
|-1-8-8-xx-4-4-4-1--6-6-xx-4-4-4-1-8-8-xx-4-4-4-6-6-66-9-9-99-|
|-1-6-6-xx-4-4-4-1--6-6-xx-4-4-4-1-6-6-xx-4-4-4-6-6-66-9-9-99-|
|-1-----xx-4-4-4-1--6-6-xx-4-4-4-1-----xx-4-4-4-6-6-66-9-9-99-| 

|---8-8-xx--------------xx---------8-8-xx--------------|
|-1-8-8-xx-4-4-4-1--6-6-xx-4-4-4-1-8-8-xx-4-4-4-6-6-66-|
|-1-6-6-xx-4-4-4-1--6-6-xx-4-4-4-1-6-6-xx-4-4-4-6-6-66-|
|-1-----xx-4-4-4-1--6-6-xx-4-4-4-1-----xx-4-4-4-6-6-66-|

|-------------------6-66666666-666666-|
|-9-9999999-9999999-6-66666666-666666-|
|-9-9999999-9999999-4-44444444-444444-|
|-9-9999999-9999999-------------------|
Just before the end
|---------------| 
|-------------6-| x4
|-1-11111-6h8---|
w/wha----------|
then
|-8-888888/10-101010101010/11-111111111111/13-131313131313-|
|----------------------------------------------------------|
|-6-666666/8--8-8-8-8-8-8-/9--9-9-9-9-9-9-/11-111111111111-| 3x
|----------------------------------------------------------|
then
|-8-888888/10-101010101010/11-111111111111-8-8888888-8888888-|
|------------------------------------------6-6666666-6666666-|
|-6-666666/8--8-8-8-8-8-8-/9--9-9-9-9-9-9--6-6666666-6666666-| 
|------------------------------------------6-6666666-6666666-|
End x4
|---8-8-xx--------------xx---------8-8-xx---------------------|
|-1-8-8-xx-4-4-4-1--6-6-xx-4-4-4-1-8-8-xx-4-4-4-6-6-66-9-9-99-|
|-1-6-6-xx-4-4-4-1--6-6-xx-4-4-4-1-6-6-xx-4-4-4-6-6-66-9-9-99-|
|-1-----xx-4-4-4-1--6-6-xx-4-4-4-1-----xx-4-4-4-6-6-66-9-9-99-| 
13
13 slided at the end 
13
            
Submit corrections

comments powered by Disqus
↑ Back to top | Strait Up Tabs for Divided. Lyrics for acoustic guitar and electric guitar. Tablatures and chords are parodies/interpretations of the original songs. You may use it for private study, scholarship, research or language learning purposes only