» » »

Yesterdays Gone Tabs (ver.1)

Artists:  A B C D E F G H I J K L M N O P Q R S T U V W X Y Z # 

Yesterdays Gone Tabs (ver.1)

Straight Line Stitch
Rating:
0/5 (0 votes)

Hard to play? Try these video lessons and learn fast.
                (Intro)
it was so frustrating to have no tabs online and there be no guitar covers online!

Tuning:half step down

Intro:

e|-0-------------------------------------------|
B|-1-------1-------1---1P0-------0-------------|
G|-2---2-------2-------------2-----------------|
D|-2-------------------------------------------|
A|-0-------------------------------------------|
E|---------------------------------------------|
                           
e|-0-------------------------------------------|
B|-0-------0-------0---------------------------|
G|-0---0-------0---0---2---2/4-----------------|
D|-2-------------------------------------------|
A|-2-------------------------------------------|
E|-0-------------------------------------------|

e|-0-------------------------------------------|
B|-1---------------------------1P0-------01P0--|
G|-2-----------2-------2-------------2---------|
D|-3-------3-------3-------3-------------------|
A|-----0---------------------------------------|
E|---------------------------------------------|

e|-3-------------------3---5---7---------------|
B|-3-------------------0---0---0---------------|
G|-0-----------0-------------------------------|
D|-0-------0-------0---------------------------|
A|-2---0---------------------------------------|
E|-3-------------------------------------------|

Verse:

e|-x-------------------------------------------|
B|-x-------------------------------------------|
G|-9---(A5 chord, liten for strumming)---------|
D|-x-------------------------------------------|
A|-7-------------------------------------------|
E|-5-------------------------------------------|

e|-x-------------------------------------------|
B|-x-------------------------------------------|
G|-12--(C5 chord)------------------------------|
D|-x-------------------------------------------|
A|-10------------------------------------------|
E|-8-------------------------------------------|

e|-x-------------------------------------------|
B|-5-------------------------------------------|
G|-5---(F7/A chord)----------------------------|
D|-3-------------------------------------------|
A|-0-------------------------------------------|
E|-x-------------------------------------------|

e|-x-------------------------------------------|
B|-x-------------------------------------------|
G|-x---(G5 chord)------------------------------|
D|-x-------------------------------------------|
A|-5-------------------------------------------|
E|-3-------------------------------------------|

Repeat that chords pattern twice for verse. Listen to song for strumming.

Chorus and bridge are unknown, if anyone knows please submit a tab or comment!
            
Hard to play? Try these video lessons and learn fast. | Correct




comments powered by Disqus
↑ Back to top | Tablatures and chords are parodies/interpretations of the original songs. You may use it for private study, scholarship, research or language learning purposes only