» » »

Remission Tabs (ver.1)

Artists:  A B C D E F G H I J K L M N O P Q R S T U V W X Y Z # 

Remission Tabs (ver.1)

Straight Line Stitch
Rating:
0/5 (0 votes)

Hard to play? Try these video lessons and learn fast.
                -------------------------------------------------------------------------------
-------------------------------------------------------------------------------

Tuning: Drop A#: A# F A# D# G C

|-----------------------------------------------------------------|----------|
|-----------------------------------------------------------------|----------|
|-----------------------------------------------------------------|----------|
|-----------------------------------------------------------------|-3-2-1-2--|
|1-1-1-1-1-1-1-1-7-7-7-7-7-7-7-7-3-3-3-3-3-3-3-3-3-3-3-3-3-3-3-3--|-3-2-1-2--|
|-----------------------------------------------------------------|-3-2-1-2--|

|---------------------------------------------------------------------------|
|---------------------------------------------------------------------------|
|---------------------------------------------------------------------------|
|---------------------------------------------------3-3-2-2-----------------|
|-----------------------------------3-3-2-2---------------------------------|
|-0-0-0-0-0-0-0-0-0-0-0-0-0-2-2-3-3---------5-5-4-4-------------------------|

|---------------------------------------------------------------------------|
|---------------------------------------------------------------------------|
|---------------------------------------------------------------------------|
|---------------------------------------------------------------------------|
|-3-2-1-2-0-1-2-1--3-2-1-2-0-1-2-1------------------------------------------|
|-3-2-1-2-0-1-2-1--3-2-1-2-0-1-2-1--3-2-1-2-0-1-2-1--3-2-1-2-0-1-2-1--------|

Thats all I figured out. May make another one later if i figure out the rest.
Or maybe someone else will.
            
Hard to play? Try these video lessons and learn fast. | Correct




comments powered by Disqus
↑ Back to top | Tablatures and chords are parodies/interpretations of the original songs. You may use it for private study, scholarship, research or language learning purposes only