» » »

Straight Line Stitch, Eucharist Tabs (ver.1)

Artists:  A B C D E F G H I J K L M N O P Q R S T U V W X Y Z # 

Eucharist Tabs (ver.1)

Straight Line Stitch Tabs
 Rating:
4/5 (4 votes)
Eucharist lessons Tabs too difficult? Try these video lessons and learn fast
                (Intro)
-------------------------------------------------------------------------------
                             Eucharist : Straight Line Stitch
-------------------------------------------------------------------------------

Tuning: Bb Standard

e|--------------------------------------------------------------------------|
B|--------------------------------------------------------------------------|
G|--------------------------------------------------------------------------|
D|-------9---9-------9---9-------9---9-------9---9-------9---9-------9---9--|
A|--------------------------------------------------------------------------|
E|-0-0-0-------0-0-0-------8-8-8-------8-8-8-------5-5-5-------5-5-5--------|

e|-----------------------------------------|
B|-----------------------------------------|
G|-----------------------------------------|
D|----------14---14----------14---14-------|
A|-----------------------------------------|
E|-10-10-10----------10-10-10--------------|


Not a whole lot of the song, but a pretty cool riff nonetheless. The chords pretty much 
follow the bass-note progression (0-8-5-10)
************************************

| /   slide up
| \   slide down
| h   hammer-on
| p   pull-off
| ~   vibrato
| +   harmonic
| x   Mute note
| b   Bend
| pb  Pre-bend
| br  Bend release
| pbr Pre-bend release
| brb Bend release bend

************************************
            
Submit corrections

comments powered by Disqus
↑ Back to top | Straight Line Stitch Tabs for Eucharist. Lyrics for acoustic guitar and electric guitar. Tablatures and chords are parodies/interpretations of the original songs. You may use it for private study, scholarship, research or language learning purposes only