>
 >
Conversion

Conversion Guitar Tabs

Straight Line Stitch - Conversion chords, tabs, tablatures, lyrics

Guitar lessons | Add/correct | Request | Top 50 tabs Artists:  A B C D E F G H I J K L M N O P Q R S T U V W X Y Z 0-9

Conversion Guitar Tabs – Straight Line Stitch

CD, Sheet music, Poster

Do you like Conversion? Share with your friends now
Tabs
Band: Straight Line Stitch
Album:

This song is played in drop B flat (or A sharp, whichever you prefer to call it). I tried
putting the rhythm in as best as I could, but you have to listen to the song to get a feel
for it. Please rate my tab! Thanks.

Intro:

Guitar 1
C------------------------------------------------------------------------------------------|
G------------------------------------------------------------------------------------------|
Eb-----------------------------------------------------------------------------------------|
A#---0-----------5----------8---------12--10----0-----------5----------8---------12--10----|
F----0-----------5----------8---------12--10----0-----------5----------8---------12--10----|
A#---0-----------5----------8---------12--10----0-----------5----------8---------12--10----|
Guitar 2                                                                                 
  |
C------------------------------------------------------------------------------------------|
G------------------------------------------------------------------------------------------|
Eb-----------------------------------------------------------------------------------------|
A#-----------------------------------------------------------------------------------------|
F----12--10--12--12--8--10--12--7--8--12--7--8--12--10--12--12--8--10--12--7--8--12--7--8--|
A#-----------------------------------------------------------------------------------------|

Verse 1:
Both Guitars Play Twice:
C-----------------------------------------------------|
G-----------------------------------------------------|
Eb----------------------------------------------------|
A#------------------------------------8-8-8-7-7-7-10--|
F-------------------------------------6-6-6-5-5-5-8---|
A#---5p0-0-0-0-000-6p0-0-0-000-1p0-0-0----------------|

Pre-Chorus:
Guitar 1:
C-----------------------------------------------------------------------------------------|
G-----------------------------------------------------------------------------------------|
Eb----------------------------------------------------------------------------------------|
A#-7---8---5---3--2--3--7---8---5---3--2--3-------------------------------12-12-12-12-10--|
F--5---6---3---1--0--3--5---6---3---1--0--3-------------------------------12-12-12-12-10--|
A#-------------------3--------------------3-----0000000055555555588888888-12-12-12-12-10--|
Guitar 2:                                                                                
 |
C-----------------------------------------------------------------------------------------|
G-----------------------------------------------------------------------------------------|
Eb----------------------------------------------------------------------------------------|
A#-7---8---5---3--2--3--7---8---5---3--2--3-----1212121210101010105555555-77777777777777--|
F--5---6---3---1--0--3--5---6---3---1--0--3-----------------------------------------------|
A#-------------------3--------------------3-----------------------------------------------|

Chorus: (Both guitars...play 2x)
C----------------------------------------------------------------------------------|
G----------------------------------------------------------------------------------|
Eb---------------------------------------------------------------------------------|
A#--8-8-8-8-8-8-8-8-7-7-5-5-5-5-5-5-5--5-0-0-3-3-3-3-3-3-3-3-3-3-3-3-3-3-3-3-3-3---|
F---8-8-8-8-8-8-8-8-7-7-5-5-5-5-5-5-5--5-0-0-3-3-3-3-3-3-3-3-3-3-3-3-3-3-3-3-3-3---|
A#--8-8-8-8-8-8-8-8-7-7-5-5-5-5-5-5-5--5-0-0-3-3-3-3-3-3-3-3-3-3-3-3-3-3-3-3-3-3---|

Both Guitars Play 2x:
C-----------------------------------------------------|
G-----------------------------------------------------|
Eb----------------------------------------------------|
A#------------------------------------8-8-8-7-7-7-10--|
F-------------------------------------6-6-6-5-5-5-8---|
A#---5p0-0-0-0-000-6p0-0-0-000-1p0-0-0----------------|

Small breakdown: (Play 2x)
Guitar 1:
C------------------------------------------------------------|
G------------------------------------------------------------|
Eb-----------------------------------------------------------|
A#-----------------------------------------------------------|
F----5p0--------5p0-6p0-------1h3-1p0---------66666655588----|
A#---5p0--------5p0-6p0-------1h3-1p0------------------------|
Guitar 2:
C------------------------------------------------------------|
G------------------------------------------------------------|
Eb-----------------------------------------------------------|
A#-----------------------------------------------------------|
F-------0-0-0-0--------0-0-0-0--------0-0-0-0-66666655588----|
A#------0-0-0-0--------0-0-0-0--------0-0-0-0----------------|

Pre-Chorus:
Guitar 1:
C-----------------------------------------------------------------------------------------|
G-----------------------------------------------------------------------------------------|
Eb----------------------------------------------------------------------------------------|
A#-7---8---5---3--2--3--7---8---5---3--2--3-------------------------------12-12-12-12-10--|
F--5---6---3---1--0--3--5---6---3---1--0--3-------------------------------12-12-12-12-10--|
A#-------------------3--------------------3-----0000000055555555588888888-12-12-12-12-10--|
Guitar 2:                                                                                
 |
C-----------------------------------------------------------------------------------------|
G-----------------------------------------------------------------------------------------|
Eb----------------------------------------------------------------------------------------|
A#-7---8---5---3--2--3--7---8---5---3--2--3-----1212121210101010105555555-77777777777777--|
F--5---6---3---1--0--3--5---6---3---1--0--3-----------------------------------------------|
A#-------------------3--------------------3-----------------------------------------------|

Chorus: (Both guitars...play 2x)
C---------------------------------------------------------------------------------|
G---------------------------------------------------------------------------------|
Eb--------------------------------------------------------------------------------|
A#--8-8-8-8-8-8-8-8-7-7-5-5-5-5-5-5-5-5-0-0-3-3-3-3-3-3-3-3-3-3-3-3-3-3-3-3-3-3---|
F---8-8-8-8-8-8-8-8-7-7-5-5-5-5-5-5-5-5-0-0-3-3-3-3-3-3-3-3-3-3-3-3-3-3-3-3-3-3---|
A#--8-8-8-8-8-8-8-8-7-7-5-5-5-5-5-5-5-5-0-0-3-3-3-3-3-3-3-3-3-3-3-3-3-3-3-3-3-3---|

"Interlude"
Guitar 1:
C-----------------------------------------------------------------------------------------|
G-----------------------------------------------------------------------------------------|
Eb----------------------------------------------------------------------------------------|
A#--8------------8-7----5------------3-2----0------------------0--------------------------|
F---8------------8-7----5------------3-2----0------------------0--------------------------|
A#--8------------8-7----5------------3-2----0------------------0--------------------------|
Guitar 2:                                                                                
 |
C-----------------------------------------------------------------------------------------|
G-----------------------------------------------------------------------------------------|
Eb--17----15-14---------17----15-14---------17----15-14--------17----15-14----------------|
A#-----15-------15-14------15-------15-14------15-------15-14-----15-------15-14----------|
F-----------------------------------------------------------------------------------------|
A#----------------------------------------------------------------------------------------|

Guitar 1:
C-------------------------------------------------------------------------------------|
G-------------------------------------------------------------------------------------|
Eb------------------------------------------------------------------------------------|
A#--8------------8-7----5------------3-2----0-----------------------------------------|
F---8------------8-7----5------------3-2----0-----------------------------------------|
A#--8------------8-7----5------------3-2----0-----------------------------------------|
Guitar 2:                                                                             |
C-------------------------------------------------------------------------------------|
G-------------------------------------------------------------------------------------|
Eb--17----15-14---------17----15-14---------17----15-14-(let note ring)---------------|
A#-----15-------15-14------15-------15-14------15-------------------------------------|
F-------------------------------------------------------------------------------------|
A#------------------------------------------------------------------------------------|

Breakdown Part 1: (Play this part 2x then play second part of breakdown)
Guitar 1:
C-----------------|-(second time starts here------------------------------------------|
G-----------------|-------------------------------------------------------------------|
Eb----------------|-------------------------------------------------------------------|
A#----------------|----------------------------5555-----------------3333---5555-------|
F-----------------|-000-000-00-0-000-000------------000-000-00-0----------------------|
A#-000-----0--0---|-000-000-00-0-000-000--0001------000-000-00-0-001----001-----------|
Guitar 2:
C-----------------|-------------------------------------------------------------------|
G-----------------|-------------------------------------------------------------------|
Eb----------------|-------------------------------------------------------------------|
A#----------------|----------------------------5555-----------------3333---5555-------|
F-----------------|-000-000-00-0-000-000------------000-000-00-0----------------------|
A#-----000---0--0-|-000-000-00-0-000-000--0001------000-000-00-0-001----001-----------|

Breakdown Part 2: (basic rhythm... listen to song to get it exact)
Guitar 1:
C-------------------------------------------------------------------------------------|
G-------------------------------------------------------------------------------------|
Eb------------------------------------------------------------------------------------|
A#------------------------------------------------------------------------------------|
F-------------------------------------------------------------------------------------|
A#--110-110-1110-110-110-11111110-110-110-1110-110-110-11111110-----------------------|
Guitar 2:                                                                             |
C-------------------------------------------------------------------------------------|
G-------------------------------------------------------------------------------------|
Eb------------------------------------------------------------------------------------|
A#--7-------------------8---------------7--------------8------------------------------|
F-------------------------------------------------------------------------------------|
A#------------------------------------------------------------------------------------|

Play the intro again:
Guitar 1
C---------------------------------------------------------|
G---------------------------------------------------------|
Eb--------------------------------------------------------|
A#---0-----------5----------8---------10--12--10--10--12--|
F----0-----------5----------8---------10--12--10--10--12--|
A#---0-----------5----------8---------10--12--10--10--12--|
Guitar 2                                                  |
C---------------------------------------------------------|
G---------------------------------------------------------|
Eb--------------------------------------------------------|
A#----------------------------------------12--10--10--12--|
F----12--10--12--12--8--10--12--7--8--15--12--10--10--12--|
A#----------------------------------------12--10--10--12--|

Chorus: (Both guitars...play 2x)
C---------------------------------------------------------------------------------|
G---------------------------------------------------------------------------------|
Eb--------------------------------------------------------------------------------|
A#--8-8-8-8-8-8-8-8-7-7-5-5-5-5-5-5-5-5-0-0-3-3-3-3-3-3-3-3-3-3-3-3-3-3-3-3-3-3---|
F---8-8-8-8-8-8-8-8-7-7-5-5-5-5-5-5-5-5-0-0-3-3-3-3-3-3-3-3-3-3-3-3-3-3-3-3-3-3---|
A#--8-8-8-8-8-8-8-8-7-7-5-5-5-5-5-5-5-5-0-0-3-3-3-3-3-3-3-3-3-3-3-3-3-3-3-3-3-3---|

Outro: (Play twice, second time the melody ends on the *)
Guitar 1 Plays chorus:
C---------------------------------------------------------------------------------|
G---------------------------------------------------------------------------------|
Eb--------------------------------------------------------------------------------|
A#--8-8-8-8-8-8-8-8-7-7-5-5-5-5-5-5-5-5-0-0-3-3-3-3-3-3-3-3-3-3-3-3-3-3-3-3-3-3---|
F---8-8-8-8-8-8-8-8-7-7-5-5-5-5-5-5-5-5-0-0-3-3-3-3-3-3-3-3-3-3-3-3-3-3-3-3-3-3---|
A#--8-8-8-8-8-8-8-8-7-7-5-5-5-5-5-5-5-5-0-0-3-3-3-3-3-3-3-3-3-3-3-3-3-3-3-3-3-3---|
Guitar 2 plays melody:                                                            |
C---------------------------------------------------------------------------------|
G---------------------------------------------------------------------*-----------|
Eb--17----15-14---------17----15-14---------17----15-14--------17----15-14--------|
A#-----15-------15-14------15-------15-14------15-------15-14-----15-------15-14--|
F---------------------------------------------------------------------------------|
A#--------------------------------------------------------------------------------|





Comments


Popular Straight Line Stitch tabs & chords
Seneca Tragedy Chords
Eucharist Intro Tabs
Remission Tabs
Remission Intro Tabs
What You Do To Me Tabs
What You Do To Me 1 Tabs
Yesterdays Gone Tabs
Yesterdays Gone Intro Tabs
Yesterdays Gone Intro 1 Tabs


Song lyrics



↑ Back to top | Tablatures and chords are parodies/interpretations of the original songs. You may use it for private study, scholarship, research or language learning purposes only
© 2014 AZChords.com Contact us | Privacy policy | DMCA | Add/correct tabs | Request tabs | Top 50 tabs