>
 >
Good Enough

Good Enough Chords

Stradlin Izzy - Good Enough chords, tabs, tablatures, lyrics

Guitar lessons | Add/correct | Request | Top 50 tabs Artists:  A B C D E F G H I J K L M N O P Q R S T U V W X Y Z 0-9

Good Enough Chords – Stradlin Izzy

CD, Sheet music, Poster

Do you like Good Enough? Share with your friends now
Chords

Good Enough   
(Izzy Stradlin)


intro

C
F-C
F-C
G-C

C                Am
Good enough for someday
F               C
Good enough for me
C                Am
Good enough for someone
F                C     C - C/B
Good enough ya see

Am                            G
 Been lookin for the words ta tell ya what I'd say
Am
 I'd have to make them up and write them down today

C             Am
Good enough forever
F              C
Good until my grave
C               Am
Good enough for after
F               C     C - C/B 
Good enough ta save

Am                                G  
 The nerves are damaged from the blinking of the strobe, 
Am                             G 
 and I'm not one to question what he done it for

SOLO

Tab Key:
b = bend (7b8 means bend string at 7th fret to make approximately the note
    the string would make if played at the 8th fret with no bend
r = release bend
h = hammer on
p = pull off
s = slide (a quick slide, sounds like one note)
/ = a slide where you play the first note, THEN slide to the second
() = harmonics, lightly touch the string directly above the fret listed
     and then pick the string 

--0-----------------------------------------------------------8-10
--1--------------------------8--------------------------8-10------
--0--------0-2---2/5-7-5-7b9---7b9r7p5-7-5---7-5-7-7/9------------
--2----0-2--------------------------------------------------------
--3--3------------------------------------------------------------

-13-12-10----------10---------------------------10-----------
----------13-12-13----13---13\12\10---/13-12-13----13-12-13--
-------------------------------------------------------------
-------------------------------------------------------------
-------------------------------------------------------------
-------------------------------------------------------------

-------------------------------- 
-------------------------------- 
-------7------------------------
-5-7b9---7-5-7b9r7-5---5h7-5~~~~ 
---------------------7---------- 
-------------------------------- 

----------10-----------------------------------------------
/13-12-13----13-12-10--8~~-8-8/10~~-10-10/12~~-12-12/13~~~~
-----------------------------------------------------------
-----------------------------------------------------------
-----------------------------------------------------------
-----------------------------------------------------------





C                Am
Good enough for something
F               C
Good enough for me
C                Am
Good enough for someone
F               C     C - C/B     
Good enough ya see
Am                            G
 done lookin for the words to tell ya what I'd say
Am                            G
 I'd have ta make them up and write them today
G
Write them down to play
G
Write them down to say
  
                C
Good enough for me
             F  C
Good enough for me
             F  C
Good enough for me 
             G  C
Good enough for me





Comments


Popular Stradlin Izzy tabs & chords
Needles Chords
Pressure Drop Chords
Gotta Say Tabs
Spazed Tabs
Sweet Caress Tabs


Song lyrics



↑ Back to top | Tablatures and chords are parodies/interpretations of the original songs. You may use it for private study, scholarship, research or language learning purposes only
© 2014 AZChords.com Contact us | Privacy policy | DMCA | Add/correct tabs | Request tabs | Top 50 tabs