» » »

Story Of The Year, Until The Day I Die Tabs (ver.2)

Artists:  A B C D E F G H I J K L M N O P Q R S T U V W X Y Z # 

Until The Day I Die Tabs (ver.2)

Story Of The Year Tabs
 Rating:
4/5 (4 votes)
Until The Day I Die lessons Tabs too difficult? Try these video lessons and learn fast
1
                Intro: Guitar 2 (x9)
-------------14---------------------14-------------------------------
----12----12----12----12---12----12----12----12----------------------
-14----14----------14---------14----------14-------------------------

Intro 2: Guitar 2 Distortion (x2)
-14-14-14--14-14-14--14-14-14---14-14-14-------------------------------------------
-12-12-12--12-12-12--11-11-11---11-11-11--14-14-14---14-14-14--14-14-14--14-14-14--
------------------------------------------12-12-12---12-12-12--12-12-12--12-12-12--

Intro 2: Guitar 1 (x2)
-7-7-7--7-7-7--7-7---7-7-7---------------------------------------------------------
-7-7-7--7-7-7--7-7---7-7-7---7-7-7--7-7-7---7-7--7-7-7-----------------------------
-5-5-5--5-5-5--4-4---4-4-4---7-7-7--7-7-7---7-7--7-7-7-----------------------------
-----------------------------5-5-5--5-5-5---5-5--5-5-5-----------------------------

Verse 1: Guitar 2 (x4)
-------------14---------------------14-------------------------------
----12----12----12----12---12----12----12----12----------------------
-14----14----------14---------14----------14-------------------------


-------------14---------------------16-------------------------------  (x4)
----12----12----12----12---12----12----12----12----------------------
-14----14----------14---------14----------14-------------------------

Guitar 1 comes in the third time palm muted
---------------------------------7-7-7-7-7-7-7-7------------------------------  (x2)
-9-9-9-9-9-9-9-9--5-5-5-5-5-5-5--7-7-7-7-7-7-7-7--7-7-7-7-7-7-7---------------
-9-9-9-9-9-9-9-9--3-3-3-3-3-3-3--5-5-5-5-5-5-5-5--7-7-7-7-7-7-7---------------
-7-7-7-7-7-7-7-7--3-3-3-3-3-3-3-------------------5-5-5-5-5-5-5---------------

Guitar 2 Only:
-------------14---------------------14-------------------------------  (x1)
----12----12----12----12---12----12----12----12----------------------
-14----14----------14---------14----------14-------------------------

Verse Continued: Guitar Two
-------------14---------------------14-------------------------------
----12----12----12----12---12----12----12----12----------------------
-14----14----------14---------14----------14-------------------------


-------------14---------------------16-------------------------------  (x2)
----12----12----12----12---12----12----12----12----------------------
-14----14----------14---------14----------14-------------------------

Guitar 1
---------------------------------7-7-7-7-7-7-7-7------------------------------  (x2)
-9-9-9-9-9-9-9-9--5-5-5-5-5-5-5--7-7-7-7-7-7-7-7--7-7-7-7-7-7-7---------------
-9-9-9-9-9-9-9-9--3-3-3-3-3-3-3--5-5-5-5-5-5-5-5--7-7-7-7-7-7-7---------------
-7-7-7-7-7-7-7-7--3-3-3-3-3-3-3-------------------5-5-5-5-5-5-5---------------

Chorus: Guitar 1 
-5-5--7-7--9-9-9-9-9-9-9-9-----------------------------------------------
-5-5--7-7--9-9-9-9-9-9-9-9-----------------------------------------------
-3-3--5-5--7-7-7-7-7-7-7-7-----------------------------------------------

Chorus: Guitar 2 comes in the third time:
-14-14-14-14-14----------------------------------------------------------- (x4)     
----------------12-11-----------------------------------------------------
----------------------12--------------------------------------------------

Guitar 2 Only:
-------------14---------------------14-------------------------------  (x1)
----12----12----12----12---12----12----12----12----------------------
-14----14----------14---------14----------14-------------------------


Verse 2: Guitar 2 (x4)
-------------14---------------------14-------------------------------
----12----12----12----12---12----12----12----12----------------------
-14----14----------14---------14----------14-------------------------


-------------14---------------------16-------------------------------  (x4)
----12----12----12----12---12----12----12----12----------------------
-14----14----------14---------14----------14-------------------------

Verse 2: Guitar 1:
-------------------------7-7-7--7-7----------------------------------
-9-9-9--9-9--5-5-5--5-5--7-7-7--7-7--7-7-7--7-7----------------------
-7-7-7--7-7--3-3-3--3-3--5-5-5--5-5--7-7-7--7-7----------------------
-7-7-7--7-7--3-3-3--3-3--------------5-5-5--5-5----------------------
-m-m-m-     -m-m-m-     -m-m-m-     -m-m-m-


---------------------------------7-7-7-7-7-7-7-7---------------------
-9-9-9-9-9-9-9-9--5-5-5-5-5-5-5--7-7-7-7-7-7-7-7--7-7-7-7-7-7-7------
-9-9-9-9-9-9-9-9--5-5-5-5-5-5-5--5-5-5-5-5-5-5-5--7-7-7-7-7-7-7------
-7-7-7-7-7-7-7-7--3-3-3-3-3-3-3-------------------5-5-5-5-5-5-5------


Pre Chorus : 
-7-7-7-7-7-7-7-7-7-7-7-7-7-7-7-7-------------------------------------
-7-7-7-7-7-7-7-7-7-7-7-7-7-7-7-7-------------------------------------
-5-5-5-5-5-5-5-5-5-5-5-5-5-5-5-5-------------------------------------


Chorus: Guitar 1 
-5-5--7-7--9-9-9-9-9-9-9-9-----------------------------------------------
-5-5--7-7--9-9-9-9-9-9-9-9-----------------------------------------------
-3-3--5-5--7-7-7-7-7-7-7-7-----------------------------------------------

Chorus: Guitar 1, 4th Time 
-5-5--7-7----9-9--7-7--5-5---9-9--7-7--5-5---9-9--7-7--5-5---9-9--7-7--5-5-
-5-5--7-7----9-9--7-7--5-5---9-9--7-7--5-5---9-9--7-7--5-5---9-9--7-7--5-5-
-3-3--5-5----7-7--5-5--3-3---7-7--5-5--3-3---7-7--5-5--3-3---7-7--5-5--3-3-

Chorus: Guitar 2 comes in the third time:
-14-14-14-14-14----------------------------------------------------------- (x4)     
----------------12-11-----------------------------------------------------
----------------------12--------------------------------------------------

Guitar 2 Only:
-------------14---------------------14-------------------------------  (x1)
----12----12----12----12---12----12----12----12----------------------
-14----14----------14---------14----------14-------------------------

Interlude:
-------------12-------12----------12-------12------------------------
-14-14-14-14----14-14----12-12-12----12-12---------------------------


-------------12-------12----------11h12h11----11---------------------
-10-10-10-10----10-10----12-12-12----------12------------------------


Chorus: Guitar 1 
-5-5--7-7--9-9-9-9-9-9-9-9-----------------------------------------------
-5-5--7-7--9-9-9-9-9-9-9-9-----------------------------------------------
-3-3--5-5--7-7-7-7-7-7-7-7-----------------------------------------------


Chorus: Guitar 2 comes in the third time:
-14-14-14-14-14----------------------------------------------------------- (x4)     
----------------12-11-----------------------------------------------------
----------------------12--------------------------------------------------


Guitar 1: Last Time

-5-5--7-7--9-9-9-9-9-9-9-9-9-9-9-9-9-9-9-9-------------------------------
-5-5--7-7--9-9-9-9-9-9-9-9-9-9-9-9-9-9-9-9-------------------------------
-3-3--5-5--7-7-7-7-7-7-7-7-7-7-7-7-7-7-7-7------------------------------


Last Chorus:
-5-5-5-5-5-5-5-5--7-7-7-7-7-7-7-7--9-9-9-9-9-9-9-9-9-9-9-9-9-9-9-9--------
-3-3-3-3-3-3-3-3--5-5-5-5-5-5-5-5--7-7-7-7-7-7-7-7-7-7-7-7-7-7-7-7--------
-3-3-3-3-3-3-3-3--5-5-5-5-5-5-5-5--7-7-7-7-7-7-7-7-7-7-7-7-7-7-7-7--------

then
-5-5-5-5-5-5-5-5--7-7-7-7-7-7-7-7-----------------------------------------
-3-3-3-3-3-3-3-3--5-5-5-5-5-5-5-5-----------------------------------------
-3-3-3-3-3-3-3-3--5-5-5-5-5-5-5-5-----------------------------------------

Go Right Into the End Part which is just like the Intro 2:
Guitar 2:
-14-14-14--14-14-14--14-14-14---14-14-14-------------------------------------------
-12-12-12--12-12-12--11-11-11---11-11-11--14-14-14---14-14-14--14-14-14--14-14-14--
------------------------------------------12-12-12---12-12-12--12-12-12--12-12-12--

Guitar 1 (x2)
-7-7-7--7-7-7---7-7--7-7-7---------------------------------------------------------
-7-7-7--7-7-7---7-7--7-7-7---7-7-7--7-7-7---7-7--7-7-7-----------------------------
-5-5-5--5-5-5---4-4--4-4-4---7-7-7--7-7-7---7-7--7-7-7-----------------------------
-----------------------------5-5-5--5-5-5---5-5--5-5-5-----------------------------


End:
-9-9--7-7--5-5--hold-------------------------------------------------------
-7-7--5-5--5-5-------------------------------------------------------------
-7-7--5-5--3-3-------------------------------------------------------------
            
Submit corrections

comments powered by Disqus
↑ Back to top | Story Of The Year Tabs for Until The Day I Die. Lyrics for acoustic guitar and electric guitar. 1 Tablatures and chords are parodies/interpretations of the original songs. You may use it for private study, scholarship, research or language learning purposes only