» » »

Storm, To Have And To Hold Tabs (ver.1)

Artists:  A B C D E F G H I J K L M N O P Q R S T U V W X Y Z # 

To Have And To Hold Tabs (ver.1)

Storm Tabs
Rating:
5/5 (1 vote)
To Have And To Hold lessons Tabs too difficult? Try these video lessons and learn fast
                

One of my favorites
enjoy and God bless :)

Lyrics:
verse 1:
You and I know that we need each other
Came to me as I drove through the pouring rain
There's something I've always known that I need to tell you
It's the simple things I find so hard to say
chorus:
So I give you my heart, and all the feelings inside
It's a love that will last for the rest of our lives
So believe in these words that are deep from my soul
And remember that I'll always be there to have and to hold
verse 2:
When you're away, I find that I need you
Then it turns out you feel the same
Now I won't be alone to face tomorrow
And the truth is out and it's falling just like rain

-------------------------------------------------------------------------1-|--|
----------10-----------------10----13-10-------10-------13-11-10---------2-|--|
----10-12----12-10-----10-12----12-------10-12----12-10----------12-10---2-|--|
-10----------------10----------------------------------------------------3-|--|
-------------------------------------------------------------------------3-|--|
-------------------------------------------------------------------------1-|--|
 intro (chorus rhythm)

-1-----1-----1-----1-----------0----1----1-----------0-----1-----3---------|--|
-3-----1-----3-----1-----------1----3----1-----------1-----3-----5---------|--|
-3-----2-----3-----2-----------0----3----2-----------2-----3-----5---------|--|
-3-----3-----3-----3-----------2----3----3-----------2-----3-----5---------|--|
-1-----3-----1-----3-----------0----1----3-----------0-----1-----3---------|--|
-1-----1-----1-----1----------------1----1-----------------1-----3---------|--|
 verse chords

---------------------------------------------------------------------------|--|
---------------------------13-11---10------------------------------13-13p11|--|
-------------------------10-------------10--------------------10-12--------|--|
-----------------------10--------------------------------------------------|--|
---------------------------------------------------------------------------|--|
---------------------------------------------------------------------------|--|
 licks behind verse 1

-1---0---1---3-----1---0---1---3-----1---0---1---3-----1---0---1---3---1---|--|
-1---1---3---5-----1---1---3---5-----1---1---3---5-----1---1---3---5---1---|--|
-2---2---3---5-----2---2---3---5-----2---2---3---5-----2---2---3---5---2---|--|
-3---2---3---5-----3---2---3---5-----3---2---3---5-----3---2---3---5---3---|--|
-3---0---1---3-----3---0---1---3-----3---0---1---3-----3---0---1---3---3---|--|
-1-------1---3-----1-------1---3-----1-------1---3-----1-------1---3---1---|--|
 chorus chords

---------------------------------------------------------------------------|--|
----------------10----------------13-11--10--------10--------------13-13p11|--|
-------10-12-10---12-10-10------10-----------10------12-10----10-12--------|--|
-----10-----------------------10-------------------------------------------|--|
---------------------------------------------------------------------------|--|
---------------------------------------------------------------------------|--|
 licks behind verse 2

-----------------------------------------------15h16p15-18b----17-18-22b-20|--|
---------13-10----------------10--13\11--16-17--------------20-------------|--|
-12-10---------12-10/12-----12--12-----------------------------------------|--|
------10----------------10-------------------------------------------------|--|
---------------------------------------------------------------------------|--|
---------------------------------------------------------------------------|--|
 solo

-6--------3-3-3-----3---1-1-1---------4-4-4---4----------1------------3----|--|
-8--------3-3-3-----3---1-1-1---------4-4-4---4----------3------------5----|--|
-8--------0-0-0-----0---2-2-2---------5-5-5---5----------3------------5----|--|
-8--------2-2-2-----2---3-3-3---------6-6-6---6----------3------------5----|--|
-6--------3-3-3-----3---3-3-3---------6-6-6---6----------1------------3----|--|
-6----------------------1-1-1---------4-4-4---4----------1------------3----|--|
 rhythm for solo -note replacement of F with Eb at end of chorus 2

-1---0---1---3----1---0---1---3----1---0---1---3----1---0---1---0---1---3--|--|
-1---1---3---5----1---1---3---5----1---1---3---5----1---1---3---1---3---5--|--|
-2---2---3---5----2---2---3---5----2---2---3---5----2---2---3---2---3---5--|--|
-3---2---3---5----3---2---3---5----3---2---3---5----3---2---3---2---3---5--|--|
-3---0---1---3----3---0---1---3----3---0---1---3----3---0---1---0---1---3--|--|
-1-------1---3----1-------1---3----1-------1---3----1-------1-------1---3--|--|
 end chorus

--------0--1---------0--1-----------------17----------------------------1--|--|
-1---3--------1---3------------------18h20--20-18-----------------------1--|--|
-------------------------------------------------17---------------------2--|--|
----------------------------------------------------19-17---------------3--|--|
-3--------------------------------------------------------20------------3--|--|
-------------------------------------------------------------20-17-13---1--|--|
 outtro
            

comments powered by Disqus
↑ Back to top | Storm Tabs for To Have And To Hold. Lyrics for acoustic guitar and electric guitar. Tablatures and chords are parodies/interpretations of the original songs. You may use it for private study, scholarship, research or language learning purposes only