>
 >
Nordavind

Nordavind Guitar Tabs

Storm - Nordavind chords, tabs, tablatures, lyrics

Guitar lessons | Add/correct | Request | Top 50 tabs Artists:  A B C D E F G H I J K L M N O P Q R S T U V W X Y Z 0-9

Nordavind Guitar Tabs – Storm

CD, Sheet music, Poster

Do you like Nordavind? Share with your friends now
Tabs
                                                                              

STORM "Nordavind"



1)

E-|---------------------------------------------------------------------------|
B-|---------------------------------------------------------------------------|
G-|-2-4-5-4---2-2-4-5-4---2-2-------------------------------------------------|
D-|---------5-----------5-----5-3---2-3-5-3-2---------------------------------|
A-|-------------------------------5-------------4-5---------------------------|
E-|-------------------------------------------5-------------------------------|
                                                                               
2)

                                                                               
E-|---------------------------------------------------------------------------|
B-|---------------------------------------------------------------------------|
G-|---------------------------------------------------------------------------|
D-|-9-2-2-2-4-5-5-7-9-5-9-1012-9-5-7-4---5-5----------------------------------|
A-|-7-3-0-0-2-3-3-5-7-3-7-8-10-7-3-5-2-5-3-3----------------------------------|
E-|------------------------------------3--------------------------------------|
                                                                               
                                                                               
E-|---------------------------------------------------------------------------|
B-|---------------------------------------------------------------------------|
G-|---------------------------------------------------------------------------|
D-|-9-107-7-9-5-5-7-4-9-9-13-14-9-10-9-7-5-4-2--------------------------------|
A-|-7-8-5-5-7-3-3-5-2-7-7-11-12-7-8--7-5-3-2-0--------------------------------|
E-|---------------------------------------------------------------------------|
                                                                               
                                                                               
E-|---------------------------------------------------------------------------|
B-|---------------------------------------------------------------------------|
G-|-----9---10-9-7-9----------------------------------------------------------|
D-|-2---7---8--7-5-7-10-9-----------------------------------------------------|
A-|-0-0-0-0-0--------8--7-----------------------------------------------------|
E-|---------------------------------------------------------------------------|
                                                                               

3)

                                                                               
E-|---------------------------------------------------------------------------|
B-|---------------------------------------------------------------------------|
G-|--------------------------------------8-8-119-9-8--------------------------|
D-|-2-9-9-10-9-9-2-4-5-4-2---2---7-9-7-9-6-6/9-7-7-6-9-9-7-7-9----------------|
A-|-0-7-7-8--7-7-0-2-3-2-0-6-0---5-7-5-7-------------7-7-5-5-7----------------|
E-|------------------------4--------------------------------------------------|
                                                                               
                                                                               
E-|---------------------------------------------------------------------------|
B-|---------------------------------------------------------------------------|
G-|---------------------------------------------------------------------------|
D-|---4/5-5-7-5-4-2-9-9-10-9-9\2-4-5-4-2---2----------------------------------|
A-|-0-2/3-3-5-3-2-0-7-7-8--7-7\0-2-3-2-0-6-0----------------------------------|
E-|--------------------------------------4------------------------------------|
                                                                               
                                                                               
E-|---------------------------------------------------------------------------|
B-|---------------------------------------------------------------------------|
G-|---------------------------------------------------------------------------|
D-|---------------------------------------------------------------------------|
A-|-0-7-8-7-5---------0-7-8-7-5---------0-7-8-7-5---------9-9\5-7-------------|
E-|-----------8-7-5-3-----------8-7-5-3-----------8-7-5-3-7-7\3-5-------------|
                                                                               

4)

                                                                               
E-|---------------------------------------------------------------------------|
B-|---------------------------------------------------------------------------|
G-|---------------------------------------------------------------------------|
D-|-------------2-9-9-14-9-9-99-7\5-5/7-7-9-9---------------------------------|
A-|-0-2-3-2-0---0-7-7-12-7-7-77-5\3-3/5-5-7-7---------------------------------|
E-|-----------4---------------------------------------------------------------|
                                                                               
                                                                               
E-|---------------------------------------------------------------------------|
B-|---------------------------------------------------------------------------|
G-|----------------------------------------------4-5-5------------------------|
D-|-7-7/9---------------------------------------------------------------------|
A-|-5-5/71010\7-9-9\7-10-10/12--9-9-9/10-7-7-7\5-5-7-7------------------------|
E-|-------8-8\5-7-7\5-8---8/10--7-7-7/8--5-5-5\3-3-5-5------------------------|
                                                                               

5) "OPPT FJELLET"

                                                                               
E-|---------------------------------------------------------------------------|
B-|---------------------------------------------------------------------------|
G-|---------------------------------------------------------------------------|
D-|---0-2-3-2-0-2-------7-7-----7-7---0-2-3-2-0-2-------7-7-----7-7-----------|
A-|-4-------------4-0-405-5-4-0-5-5-4-------------4-0-405-5-4-0-5-5-----------|
E-|---------------------------------------------------------------------------|
                                                                               
                                                                               
E-|---------------------------------------------------------------------------|
B-|---------------------------------------------------------------------------|
G-|---------------------------------------------------------------------------|
D-|-7-7-10-14-14-14-12-9-12-10-9-7-9-10-7-9-6-2-6---7-7-6---7-7---------------|
A-|-5-7-8--12-12-12-10-7-10-8--7-5-7-8--5-7-4-0-4-0-5-5-4-0-5-5---------------|
E-|---------------------------------------------------------------------------|
                                                                               
                                                                               
E-|---------------------------------------------------------------------------|
B-|---------------------------------------------------------------------------|
G-|---------------------------------------------------------------------------|
D-|-6/7-7-7/9-9-9/10-1010/14-14-14\12-12-12\9-9-9/10-1010\7-7-7/9-9-9\6-6-7-2-|
A-|-4/5-5-5/7-7-7/8--8--8/12-12-12\10-10-10\7-7-7/8--8--8\5-5-5/7-7-7\4-4-5-0-|
E-|---------------------------------------------------------------------------|





Comments


Popular Storm tabs & chords
Liefde Chords
Lullaby Chords
Langt Borti Lia Tabs
Mellom Bakkar Og Berg Tabs
Oppe I Fjellet Tabs
Oppi Fjellet Tabs
To Have And To Hold Tabs
Utferd 1 Tabs
Liefde Ukulele
Lullaby Ukulele


Song lyrics



↑ Back to top | Tablatures and chords are parodies/interpretations of the original songs. You may use it for private study, scholarship, research or language learning purposes only
© 2014 AZChords.com Contact us | Privacy policy | DMCA | Add/correct tabs | Request tabs | Top 50 tabs