» » »

Langt Borti Lia Tabs (ver.1)

Artists:  A B C D E F G H I J K L M N O P Q R S T U V W X Y Z # 

Langt Borti Lia Tabs (ver.1)

Storm
Rating:
0/5 (0 votes)

Hard to play? Try these video lessons and learn fast.
                


Riff 1
|-----------------------------------------|
|-----------------------------------------|
|-11-11/12--9-9/11--7--11-14--13--16--11--|
|-9--9-/10--7-7/9---5--9--12--11--14--9---|
|-----------------------------------------|
|-----------------------------------------|

Riff 2
|-------------------------------------------------------|
|-------------------------------------------------------|
|-------------------------------------------------------|
|--2--9--9--4-5-2-4--2-2-4-5-4-2-4---2----2-4-5-2-4---2-|
|--0--7--7--2-3-0-2--0-0-2-3-2-0-2-2-0--6-0-2-3-0-2-2-0-|
|----------------------------------0----4-----------0---|

Riff 3
|-----------------------------------------------------------------------|
|-----------------------------------------------------------------------|
|-----------------------------------------------------------------------|
|--2-2-2----4-4-4-4--5-5-7-9-9-7-4--5-2-4-5--4---2-4--5-5-4-2---2-2---2-|
|--0-0-0-2--2-2-2-2--3-3-5-7-7-5-2--3-0-2-3--2-5-0-2--3-3-2-0-6-0-0-6-0-|
|--------0-------------------------------------3--------------4-----4---|

Riff 4
|--------------------------------------|
|--------------------------------------|
|------------9-5-4-2-------------------|
|--9-4-5-2---7-3-2-0--9-5-7-9--4-5-4-2-|
|--7-2-3-0------------7-3-5-7--2-3-2-0-|
|--------------------------------------|

Riff 5                               x2 
-------------------------------------------------------------------------|
-------------------------------------------------------------------------|
----4-4-4-4-4-2----------------------------------------------------------|
--2-2-2-2-2-2-0-4--5-4-2---2-4--2--2----9-4-5-9--7-5-4-9-9-7-5-4-----2-2-|
--0-------------2--3-2-0-6-0-2--0--0----7-2-3-7--5-3-2-7-7-5-3-2-6-2-0-0-|
-------------------------4---------------------------------------4-0-----|

Riff 6                         x2
|-----------------------------------------------------------|
|-----------------------------------------------------------|
|-----------------------------------------------------------|
|-----------------------------------------------------------|
|--3-5-7-8-7-5-3-2-0---0-2-3-2------3-2-3-2-0---------0--0--|
|--------------------4------------------------4-0-2-4-------|
            
Hard to play? Try these video lessons and learn fast. | Correct




comments powered by Disqus
↑ Back to top | Tablatures and chords are parodies/interpretations of the original songs. You may use it for private study, scholarship, research or language learning purposes only