» » »

Take A Number Bass tabs (ver.2)

Artists:  A B C D E F G H I J K L M N O P Q R S T U V W X Y Z # 

Take A Number Bass tabs (ver.2)

Stone Sour
Rating:
0/5 (0 votes)

Hard to play? Try these video lessons and learn fast.
                Tuning: B E A D (G)

h = hammer on
r = let note ring
/ = slide up

Song start (first note):
D----
A----
E----
B-5r-

Riff one (intro):
D----------------------------------------------------
A----------------------------------------------------
E----------------------------------------------------
B-2-2-2-2-2-2-2-5r-2-2-2-2-2-2-2-5r-2-2-2-2-2-2-2-5r-


Riff two (verse):
D---------2-----------2-----------2----------2--2h4-
A-4-44-2h4---4-44-2h4----4-44-2h4---4-44-2h4--------
E---------------------------------------------------
B---------------------------------------------------

Riff three (chorus):
D-------------------------------------------
A-2h4444-2r-2h4444-2r-2h4444-2r-------------
E-------------------------------0h2-2-2-2-0-
B-------------------------------------------

D------------------------------------------------
A-2h4444-2r-/14h161616-14r-2h4444-2r-------------
E------------------------------------0h2-2-2-2-0-
B------------------------------------------------

Riff four
D---------------------------------------------------------------------
A---------------------------------------------------------------------
E---------------------------------------------------------------------
B-2-2-2-2-2-2-2-5r-2-2-2-2-2-2-2-5r-2-2-2-2-2-2-2-5r-2-2-2-2-2-2-2-5r-


Riff Order
----------
Song Start (x1)
Riff one (x1)
Riff two (x3)
Riff three (x1)
Riff two (x3)
Riff three (x1)
Riff four (x1)
Riff three (x1)
Riff four (X2)
            
Hard to play? Try these video lessons and learn fast. | Correct




comments powered by Disqus
↑ Back to top | Tablatures and chords are parodies/interpretations of the original songs. You may use it for private study, scholarship, research or language learning purposes only