» » »

Stone Sour, Sillyworld Tabs (ver.2)

Artists:  A B C D E F G H I J K L M N O P Q R S T U V W X Y Z # 

Sillyworld Tabs (ver.2)

Stone Sour Tabs
Rating:
0/5 (0 votes)
Sillyworld lessons Tabs too difficult? Try these video lessons and learn fast
                -----------------------------
Stone Sour - Silly World
-----------------------------


Tuning: Eb Ab Db Gb Bb Eb

NOTE: I believe that there are two guitars. This is one of them.

INTRO [listen for strum pattern]
Eb|--0-------------0--------|
Bb|--0-------------0--------|
Gb|--6-------------4--------|
Db|--8-------------6--------|
Ab|--9-------------7--------|
Eb|--x-------------x--------| X3
then
Eb|--0-------------0-----------0-0-|
Bb|--8-------------0-----------0-0-|
Gb|--9-------------6-----------4-4-|
Db|--10------------8-----------6-6-|
Ab|--10------------9-----------7-7-|
Eb|--x-------------x-----------x-x-|

INTRO SOLO
Eb|--12p9--------------------------------------|
Bb|-------12b14r12b14r12-----------------------|
Gb|--------------------------------------------|
Db|------------------------------4--7b9r7p5----|
Ab|----------------------------------------h7--|
Eb|--------------------------------------------|

Eb|-----------------------|-----10b12r10-------|
Bb|----------8-10b12r10-8h10p8-----------------|
Gb|------7h9-----------------------------------|
Db|--7h9---------------------------------------|
Ab|--------------------------------------------|
Eb|--------------------------------------------|

Eb|-----------------------------------------------|
Bb|--10b12r10---8--7h8p7--------------------------|
Gb|----------------------7--7s9-------------------|
Db|-------------------------------7p5-4h5p4-------|
Ab|-----------------------------------------5-5s7-|
Eb|-----------------------------------------------|

Verse
Eb|--0-------0-------0-------0-------0-------0-------0-------0--------| X4
Bb|--0-------0-------0-------0-------0-------0-------0-------0--------|
Gb|--4-------4-------4-------4-------3-------3-------3-------3--------|
Db|--6---6---6---6---6---6---6---6---4---4---4---4---4---4---4---4----|
Ab|--7---7---7---7---7---7---7---7---4---4---4---4---4---4---4---4----|
Eb|-------------------------------------------------------------------|

Eb|--5s7--5--5--5s7--5--5--5s7--7s5------------|  X2  ----4-4---|
Bb|--5s7--5--5--5s7--5--5--5s7--7s5------------|      ----5-5---|
Gb|--------------------------------------------|      ----------|
Db|--------------------------------------------|      ----------|
Ab|--------------------------------------------|      ----------|
Eb|--------------------------------------------|      ----------|

Chorus (Distortion)
Eb|-----------------------------------------------------------------|
Bb|-----------------------------------------------------------------|
Gb|-----------------------7-7-7-7-7-7-7s9---------------------------|
Db|--2-2-2-2-2-2-2-4s5----7-7-7-7-7-7-7s9---------------------------|
Ab|--2-2-2-2-2-2-2-4s5----5-5-5-5-5-5-5s7---------------------------|
Eb|--0-0-0-0-0-0-0-2s3----------------------------------------------|

Eb|-----------------------------------------------------------------|
Bb|-----------------------------------------------------------------|
Gb|--5-5-5-5-5-5-5-5------4-4-5-5-7-7-------------------------------|
Db|--5-5-5-5-5-5-5-5------4-4-5-5-7-7-0-----------------------------|
Ab|--3-3-3-3-3-3-3-3------2-2-3-3-5-5-0-----------------------------|
Eb|-----------------------------------------------------------------| X2


Eb|-----------------------------------------------------------------|
Bb|-----------------------------------------------------------------|
Gb|-----------------------------------------------------------------|
Db|-----------------------------------------------------------------|
Ab|-----------------------------------------------------------------|
Eb|--5h7-5h7-5--5h7-5h7-5-5h7-5h7----3h5-3h5-3-3h5-3h5-3-3h5-3h5----|

Eb|-----------------------------------------------------------------|
Bb|-----------------------------------------------------------------|
Gb|-----------------------------------------------------------------|
Db|-----------------------------------------------------------------|
Ab|-----------------------------------------------------------------|
Eb|--2h3-2h3-2-2h3-2h3-2-2h3-2h3----1-1-1-1-1--1-1-1-1-1--1-1-1-1-0-|


Bridge
Eb|-----------------------------------------------------------------|
Bb|-----------------------------------------------------------------|
Gb|-----------------------------------------------------------------|
Db|-7-7-7-7-7-7-7-7-7-7-7-7-7-7-7-7-5-5-5-5-5-5-5-5-5-5-5-5-5-5-5-5-|
Ab|-7-7-7-7-7-7-7-7-7-7-7-7-7-7-7-7-5-5-5-5-5-5-5-5-5-5-5-5-5-5-5-5-|
Eb|-5-5-5-5-5-5-5-5-5-5-5-5-5-5-5-5-3-3-3-3-3-3-3-3-3-3-3-3-3-3-3-3-|

Eb|-----------------------------------------------------------------|
Bb|-----------------------------------------------------------------|
Gb|-----------------------------------------------------------------|
Db|-4-4-4-4-4-4-4-4-4-4-4-4-4-4-4-4-3-3-3-3-3-3-3-3-3-3-3-3-3-3-3-3-|
Ab|-4-4-4-4-4-4-4-4-4-4-4-4-4-4-4-4-3-3-3-3-3-3-3-3-3-3-3-3-3-3-3-3-|
Eb|-2-2-2-2-2-2-2-2-2-2-2-2-2-2-2-2-1-1-1-1-1-1-1-1-1-1-1-1-1-1-1-1-|   repeat
            

comments powered by Disqus
↑ Back to top | Stone Sour Tabs for Sillyworld. Lyrics for acoustic guitar and electric guitar. Tablatures and chords are parodies/interpretations of the original songs. You may use it for private study, scholarship, research or language learning purposes only