>
 >
Sillyworld

Sillyworld Guitar Tabs

Stone  Sour - Sillyworld chords, tabs, tablatures, lyrics

Guitar lessons | Add/correct | Request | Top 50 tabs Artists:  A B C D E F G H I J K L M N O P Q R S T U V W X Y Z 0-9

Sillyworld Guitar Tabs – Stone Sour

CD, Sheet music, Poster

Do you like Sillyworld? Share with your friends now
Bass TabsTabsTabs v2Tabs v3Tabs v4
-------------------------------------------------------------------
              STONE SOUR - Sillyworld
-------------------------------------------------------------------
Hit me up with suggestions....

Tuning: Eb Ab Db Gb Bb Eb

----------------------------------
INTRO (clean)
Eb|--0-------------0----------------------------------------------|
Bb|--0-------------0----------------------------------------------|
Gb|--3-------------1----------------------------------------------|
Db|--4-------------2----------------------------------------------|
Ab|--4-------------2----------------------------------------------|
Eb|--x-------------x----------------------------------------------|

                DS    US
Eb|--0-----------0------0-----------------------------------------|
Bb|--0-----------0------0-----------------------------------------|
Gb|--3-----------1------1-----------------------------------------|
Db|--3-----------2------2-----------------------------------------|
Ab|--4-----------2------2-----------------------------------------|
Eb|--x-----------x------x-----------------------------------------|

----------------------------------

VERSE (Freedom's just a word...) (clean)
Eb|---------------------------------------------------------------|
Bb|---------------------------------------------------------------|
Gb|----1-1-1-1-1-1-1-----3-3-3-3-3-3-3----------------------------|  x3
Db|----2-2-2-2-2-2-2-----4-4-4-4-4-4-4----------------------------|
Ab|----2-2-2-2-2-2-2-----4-4-4-4-4-4-4----------------------------|
Eb|---------------------------------------------------------------|

Eb|----2-2-2-2-2-2-2---0-0-0-0-0-0-0----0-0-----------------------|
Bb|----2-2-2-2-2-2-2---0-0-0-0-0-0-0----0-0-----------------------|
Gb|----0-0-0-0-0-0-0---3-3-3-3-3-3-3----1-1-----------------------|
Db|----0-0-0-0-0-0-0---4-4-4-4-4-4-4----2-2-----------------------|
Ab|----2-2-2-2-2-2-2---4-4-4-4-4-4-4----2-2-----------------------|
Eb|----3-3-3-3-3-3-3----------------------------------------------|

( Love is just a song )
Eb|---------------------------------------------------------------|
Bb|---------------------------------------------------------------|
Gb|----1-1-1-1-1-1-1-----3-3-3-3-3-3-3----------------------------|  x3
Db|----2-2-2-2-2-2-2-----4-4-4-4-4-4-4----------------------------|
Ab|----2-2-2-2-2-2-2-----4-4-4-4-4-4-4----------------------------|
Eb|---------------------------------------------------------------|

Eb|----2-2-2-2-2-2-2---0-0-0-0-0-0-0----0-0-----------------------|
Bb|----2-2-2-2-2-2-2---0-0-0-0-0-0-0----0-0-----------------------|
Gb|----0-0-0-0-0-0-0---3-3-3-3-3-3-3----1-1-----------------------|
Db|----0-0-0-0-0-0-0---4-4-4-4-4-4-4----2-2-----------------------|
Ab|----2-2-2-2-2-2-2---4-4-4-4-4-4-4----2-2-----------------------|
Eb|----3-3-3-3-3-3-3----------------------------------------------|

-----------------------------------

CHORUS (Distortion)

Eb|---------------------------------------------------------------|
Bb|---------------------------------------------------------------|
Gb|--1-1-1-1-1-1-1-1----7-7-7-7-7-7-7-7---------------------------|
Db|--2-2-2-2-2-2-2-2----7-7-7-7-7-7-7-7---------------------------|
Ab|--2-2-2-2-2-2-2-2----5-5-5-5-5-5-5-5---------------------------|
Eb|---------------------------------------------------------------|

Eb|---------------------------------------------------------------|
Bb|---------------------------------------------------------------|
Gb|--5-5-5-5-5-5-5-5----4-4-4-4-4-4-4-4---------------------------|
Db|--5-5-5-5-5-5-5-5----4-4-4-4-4-4-4-4---------------------------|
Ab|--3-3-3-3-3-3-3-3----2-2-2-2-2-2-2-2---------------------------|
Eb|---------------------------------------------------------------|

Eb|---------------------------------------------------------------|
Bb|---------------------------------------------------------------|
Gb|---------------------------------------------------------------|
Db|---------------------------------------------------------------|
Ab|---------------------------------------------------------------|
Eb|--5h7-5h7-5--5h7-5h7-5-5h7-5h7----3h5-3h5-3-3h5-3h5-3-3h5-3h5--|

Eb|---------------------------------------------------------------|
Bb|---------------------------------------------------------------|
Gb|---------------------------------------------------------------|
Db|---------------------------------------------------------------|
Ab|---------------------------------------------------------------|
Eb|--2h3-2h3-2-2h3-2h3-2-2h3-2h3----1h3-1h3-1-1h3-1h3-1-1h3-1h3---|

-----------------------------------

2nd VERSE ( Peace is just two fingers... ) (clean)
Eb|---------------------------------------------------------------|
Bb|---------------------------------------------------------------|
Gb|----1-1-1-1-1-1-1-----3-3-3-3-3-3-3----------------------------|   x3
Db|----2-2-2-2-2-2-2-----4-4-4-4-4-4-4----------------------------|
Ab|----2-2-2-2-2-2-2-----4-4-4-4-4-4-4----------------------------|
Eb|---------------------------------------------------------------|

Eb|----2-2-2-2-2-2-2---0-0-0-0-0-0-0----0-0-----------------------|
Bb|----2-2-2-2-2-2-2---0-0-0-0-0-0-0----0-0-----------------------|
Gb|----0-0-0-0-0-0-0---3-3-3-3-3-3-3----1-1-----------------------|
Db|----0-0-0-0-0-0-0---4-4-4-4-4-4-4----2-2-----------------------|
Ab|----2-2-2-2-2-2-2---4-4-4-4-4-4-4----2-2-----------------------|
Eb|----3-3-3-3-3-3-3----------------------------------------------|

------------------------------------

2nd CHORUS  (Distortion)

Eb|---------------------------------------------------------------|
Bb|---------------------------------------------------------------|
Gb|--1-1-1-1-1-1-1-1----7-7-7-7-7-7-7-7---------------------------|
Db|--2-2-2-2-2-2-2-2----7-7-7-7-7-7-7-7---------------------------|
Ab|--2-2-2-2-2-2-2-2----5-5-5-5-5-5-5-5---------------------------|
Eb|---------------------------------------------------------------|
                                                                   X2
Eb|---------------------------------------------------------------|
Bb|---------------------------------------------------------------|
Gb|--5-5-5-5-5-5-5-5----4-4-4-4-4-4-4-4---------------------------|
Db|--5-5-5-5-5-5-5-5----4-4-4-4-4-4-4-4---------------------------|
Ab|--3-3-3-3-3-3-3-3----2-2-2-2-2-2-2-2---------------------------|
Eb|---------------------------------------------------------------|

----------------------------------

BRIDGE ( We go to extreams, We've got our insicnts...    We fall, We fault, We Fall in line... etc. )
Note: This pattern below plays for the rest of the song even throug the solo in the background *

Eb|---------------------------------------------------------------|
Bb|---------------------------------------------------------------|
Gb|---------------------------------------------------------------|
Db|---------------------------------------------------------------|
Ab|---------------------------------------------------------------|
Eb|--5h7-5h7-5--5h7-5h7-5-5h7-5h7----3h5-3h5-3-3h5-3h5-3-3h5-3h5--|

Eb|---------------------------------------------------------------|
Bb|---------------------------------------------------------------|
Gb|---------------------------------------------------------------|
Db|---------------------------------------------------------------|
Ab|---------------------------------------------------------------|
Eb|--2h3-2h3-2-2h3-2h3-2-2h3-2h3----1h3-1h3-1-1h3-1h3-1-1h3-1h3---|

---------------------------------

SOLO
Note: No specific notes yet, I know he's messing around high up in the EbMinor Penatonic scale which is:

Eb|--------------------------------------------12-15------| <<<--<<
Bb|------------------------------------12-15--------------| <<---<<
Gb|---------------------------12-14-----------------------| <----<<
Db|-------------------12-14-------------------------------| -----<<
Ab|----------12-14-----------------------------------------------<<
Eb|-12-15--------------------------------------------------------<<

so just mess around with it...

KEY:

| /  slide up
| \  slide down
| h  hammer-on
| p  pull-off
| ~  vibrato
| +  harmonic
| x  Mute note

===========================================================





Comments


Popular Stone Sour tabs & chords
30-30/150 1 Bass Tabs
The Travelers Part 1 Chords
666inhale666 Tabs
Blotter 2 Tabs
Bother (Solo) Tabs
Hell And Consequences Tabs
Monolith Official Tabs
Reborn 4 Tabs
The Bitter End 1 Tabs
Dying Ukulele


Song lyrics



↑ Back to top | Tablatures and chords are parodies/interpretations of the original songs. You may use it for private study, scholarship, research or language learning purposes only
© 2014 AZChords.com Contact us | Privacy policy | DMCA | Add/correct tabs | Request tabs | Top 50 tabs