» » »

Say Youll Haunt Me Bass tabs (ver.4)

Artists:  A B C D E F G H I J K L M N O P Q R S T U V W X Y Z # 

Say Youll Haunt Me Bass tabs (ver.4)

Stone Sour
Rating:
0/5 (0 votes)

Tabs too difficult? Try these video lessons and learn fast.
                
To learn this song you must read all the text and tabs too.
I tabbed this by changing it to bass from an existing guitar tab on here so if 
your band is covering this song the guitar tab already on here will go with the bass.

TUNING: EADG (although I think its supposed to be in in drop d so if you do that 
just transpose the frets on the E string down 2 frets or whatever!)

[Intro/Verse]

In the intro and verses the bassist is using the Diatonic Scale and improvising 
the notes, you could easily do the same... basically play around with these notes 
in time to the track and see what you come up with.

G|-2-0-----------| Repeat until Pre-Chorus		E|-1-3-0-|
D|----2-3-0------| and if you want you can add...
A|---------2-3-0-|
E|---------------|

[Pre-Chorus]

G|-------------------------------------|
D|-------------------------------------|
A|-------------------------------------|
E|--7-777777777777--555-9-999999999999-|
PM|	||----............--------............-|

[Short Chorus (x2 only)]

G|-------------------------------------|
D|-------------------------------------|
A|---------5555h7p5h7-------5555-5-4---|
E|--7777-5-----------55555-0-----------|

[Short Bridge (x1 only)]

In this part the bassist does some weird bass fill but I can’t seem to figure it 
out, but whoever watches you play this wont notice it so I wouldnt worry too much 
unless you can correct it.

Together - together - we(ll) be together - together - forever - I belong to you! 
G|--------------------------------------|
D|--------------------------------------|
A|----------5-----------------5---------|
E|--77-5-77--7-5-77-5-77-5-77--7-5-7----|

[Verse]

[Pre-Chorus]

[Chorus (x4)]

[Bridge (x2)]

[Solo]
During the solo play the Bridge part (short break) FOLLOWED by the Verse part

[Pre-Chorus (x2)]

[Chorus (x4)]

[Bridge (x2)]

[ENDING]

E|-777-5-7/0-|
            
Tabs too difficult? Try these video lessons and learn fast.




comments powered by Disqus
↑ Back to top | Tablatures and chords are parodies/interpretations of the original songs. You may use it for private study, scholarship, research or language learning purposes only