» » »

Say Youll Haunt Me Bass tabs (ver.1)

Artists:  A B C D E F G H I J K L M N O P Q R S T U V W X Y Z # 

Say Youll Haunt Me Bass tabs (ver.1)

Stone Sour
Rating:
0/5 (0 votes)

Tabs too difficult? Try these video lessons and learn fast.
                Artist-Stone Sour

This is my first tab of stone sours comeback song "Say You'll Haunt Me" the rhythms shouldn't
be too hard to spot for this one, also the octave slides are just what i think 
sound good. the fill in
the break is not full correct to the song but it works and if you want to create 
one then it's just
using B minor (tabbed below) and the B pentatonic minor which is helpful for 
improvising to this song :D

B minor
g-------------------|
d---------------7-9-|
a--------7-9-10-----|
e-7-9-10------------|

B pentatonic minor
g--------------7-9-11-|
d----------7-9--------|
a------7-9------------|
e-7-10----------------|

"Say You'll Haunt Me"

drum fill

intro
g-4~-2~-1~----|
d-------------|
a----------2~-|
e-------------|

verse
g-----------0-2-0---------------------|
d-4-0-2-4-5------4-5-0-----2----------|
a----2-----2----------2-4-5-5-4-5-4---|
e-----------------------------------5-| x4

build up (slide up to octave)
g-----------|
d------9x16-|
a-2x16------|
e-----------|

chorus
g------------------------------------------|
d------------------------------------------|
a----------5-555757---------4-2-2222424----|
e-77777-55----------55555-2----------------| x2

break (with bass fill) the fill can be used at any of the breaks
g------------------------------|
d-----------------45-----------|
a---------5------7--7-4575454--|
e-577-577--7-577-----7-------5-|

verse
g-----------0-2-0---------------------|
d-4-0-2-4-5------4-5-0-----2----------|
a----2-----2----------2-4-5-5-4-5-4---|
e-----------------------------------5-|   x4

build up (slide up to octave)
g-----------|
d------9x16-|
a-2x16------|
e-----------|

chorus
g---------------------------------------|
d---------------------------------------|
a----------5-555757---------4-2-2222424-|
e-77777-55----------55555-2-------------| x4

break (with bass fill)
g------------------------------|
d-----------------45-----------|
a---------5------7--7-4575454--|
e-577-577--7-577-----7-------5-|  x2

g----------------------------------------------------------------------------|
d----------------------------------------------------------------------------|
a----------5----------------5-4------4---------5----------------5-4------4---|
e-5777-577---7-577-5777-577-----7-5----777-577---7-577-5777-577-----7-5----7-|

Drum fill

Guitar solo
g-----------0-2-0---------------------|
d-4-0-2-4-5------4-5-0-----2----------|
a----2-----2----------2-4-5-5-4-5-4---|
e-----------------------------------5-|  x4

Bass solo
g-----------0-2-0---------------------|
d-4-0-2-4-5------4-5-0-----2----------|
a----2-----2----------2-4-5-5-4-5-4---|
e-----------------------------------5-|

g-----------0-2-0----|
d-4-0-2-4-5------4-5-|
a----2-----2---------|
e--------------------|

rest for 4beats

build up (slide up to octave)
g-------------------------|
d--------------------9x16-|
a-2x16-0-2x16-0-2x16------|
e-------------------------|

chorus
g---------------------------------------|
d---------------------------------------|
a----------5-555757---------4-2-2222424-|
e-77777-55----------55555-2-------------|  x4

outro
g-------------------------------------------------------------------------------|
d-------------------------------------------------------------------------------|
a---------5---------------5-4-----4---------5-----------------5-4-----4-----5---|
e-577-577---7-577-577-577-----7-5---777-577---7-577-5777-577------7-5---777---7-|
            
Tabs too difficult? Try these video lessons and learn fast.




comments powered by Disqus
↑ Back to top | Tablatures and chords are parodies/interpretations of the original songs. You may use it for private study, scholarship, research or language learning purposes only