» » »

Stone Sour, Say Youll Haunt Me Tabs (ver.7)

Artists:  A B C D E F G H I J K L M N O P Q R S T U V W X Y Z # 

Say Youll Haunt Me Tabs (ver.7)

Stone Sour Tabs
 Rating:
4/5 (4 votes)
Say Youll Haunt Me lessons Tabs too difficult? Try these video lessons and learn fast
                Say you'll haunt me
By; Stonesour
As heard on; Audio Secrecy

Intro/ Clean sound with some delay to it
E|---------------------------------------|
B|-7---------7-----10--7-----9----7~~7~~-|
G|---7---6-----7---------7-------7~~7~~--|
D|-----9---------9---------9----9~~9~~---|
A|---------------------------------------|
E|---------------------------------------|
                              [-sweep-]

Verse Riff A
E|---------------------------------|
B|-7-------------------------------|
G|---7---6-----6-----6-----6-----7-| X's 4
D|-----9---7-9---7-9---7-9---7-9---|
A|---------------------------------|
E|---------------------------------|

Verse Riff B
E|------------------------------|
B|-10--7------------------------|
G|----------6-----6-----6-----7-| X's 4
D|--------9---7-9---7-9---7-9---|
A|------------------------------|
E|------------------------------|

Bridge A (I will give you...)
E|-------------------------------------------|
B|-------------------------------------------|
G|-------------------------------------------|
D|-444444444444--4-2-4-6-4--4444444444444444-|
A|-222222222222--2-0-2-4-2--2222222222222222-|
E|-------------------------------------------|
  [-----PM-----]          [------PM-------]

Chorus (Say you wanna stay...)
E|------------------------------------|
B|------------------------------------|
G|------------------------------------|
D|-4444466222222646-44444649999999646-|
A|-2222244000000424-22222427777777424-|
E|------------------------------------|

E|-----------------------------------|
B|-----------------------------------|
G|-----------------------------------|
D|-444444466222264644444449999999646-|
A|-222222244000042422222227777777424-|
E|-----------------------------------|

Bridge B(We'll be together...)
E|-----------------------------------|
B|-----------------------------------|
G|-----------------------------------|
D|-244-244-74244-2444-244-7-9-7-2-64-|
A|-022-022-52022-0222-022-5-7-5-0-42-|
E|-----------------------------------|

Verse A X's 4
Verse B X's 4
Bridge A
Chorus X's 2
Bridge B X's 4

Solo 1 /Only slide from note 7 on high E once
E|-7/14----12----------------------------------|
B|------15----14-15-14-12----12-12-14-14-15-15-|
G|------------------------14-------------------|
D|---------------------------------------------|
A|---------------------------------------------|
E|---------------------------------------------|

E|-------------------12-12-12-12-14-14-12-|
B|-12-12-14-14-15-15----------------------|
G|----------------------------------------|
D|----------------------------------------|
A|----------------------------------------|
E|----------------------------------------|

Solo 2
E|-14----------------------------------------|
B|----15-14----------------------------------|
G|----------14--------------11----------14\4-|
D|-------------14--12-11-12----12-11-12------|
A|-------------------------------------------|
E|-------------------------------------------|

E|-------2-0-------------------------|
B|-----3-----3-2-3-3h5-3-2-3-3p2-0---|
G|-4-6-----------------------------2-|
D|-----------------------------------|
A|-----------------------------------|
E|-----------------------------------|

Solo 3 [The *note is a pinch harmonic]
E|-7/14----12-------------------------------*12-*14-|
B|------15----14-15-14-12----12-*12-*14-*15---------|
G|------------------------14------------------------|
D|--------------------------------------------------|
A|--------------------------------------------------|
E|--------------------------------------------------|

Bridge C
E|------------------------|
B|------------------------|
G|------------------------| X' 4
D|-444444444444-4-2-4-6-4-|
A|-222222222222-2-0-2-4-2-|
E|------------------------|

Chorus X's 2
Bridge B X's 2

Outro
E|-----------|
B|-----------|
G|-----------|
D|-4-2-4-6-4-|
A|-2-0-2-4-2-|
E|-----------|
            
Submit corrections

comments powered by Disqus
↑ Back to top | Stone Sour Tabs for Say Youll Haunt Me. Lyrics for acoustic guitar and electric guitar. Tablatures and chords are parodies/interpretations of the original songs. You may use it for private study, scholarship, research or language learning purposes only