» » »

Stone Sour, Say Youll Haunt Me Tabs (ver.3)

Artists:  A B C D E F G H I J K L M N O P Q R S T U V W X Y Z # 

Say Youll Haunt Me Tabs (ver.3)

Stone Sour Tabs
Rating:
0/5 (0 votes)
Hard to play? Try these video lessons and learn fast.
                drop b(B,F#,B,E,G#,C#)

intro
C#/-5---5-----5--85--8~~5--75--7~~5---5---5-----|
G#/--6-6-6-6~~-6---6-----6---6----66--66--66----|
E-/---7---7-----7---7-----7---7---7-7-7-7-7-7~~-|
B-/---------------------------------------------|
F#/---------------------------------------------|
B-/---------------------------------------------|

Verse-X2
C#/-5---5----5----8---5----5----7---5----5----5---5----5----|
G#/--6-6-6-6~-6-6--6-6-6-6~-6-6--6-6-6-6~-6-6--6-6-6-6~-6-6-|
E-/---7---7----7----7---7----7----7---7----7----7---7----7--|
B-/---------------------------------------------------------|
F#/---------------------------------------------------------|
B-/---------------------------------------------------------|

Pre-Chours-X2
C#/---------------------|
G#/---------------------|
E-/---------------------|
B-/-777777777777-7/55/9-|
F#/-555555555555-5/33/7-|
B-/---------------------|

Chours-X2
C#/------------------------------------------------|
G#/------------------------------------------------|
E-/------------------------------------------------|
B-/-77777/5/1010101010/12/10/12/55555-977777/9/7/9-|
F#/-55555/3/8 8 8 8 8 /10/8 /10/333330755555/7/5/7-|
B-/------------------------------------------------|

Bridge-X2
C#/---------------------|
G#/---------------------|
E-/---------------------|
B-/-5-77-5-77-10-7-5-77-|
F#/-3-55-3-55-8 -5-3-55-|
B-/---------------------|

Verse-X2

Pre-Chours-X2

Chours-X4

Bridge-X8

Solo(only know some of the solo)-X2
C#/---------------------------------------------------------------|
G#/-22-17-20-15-18-15-13/15-13/15-15/18-18/20-20/22-2222-20-22-20-|
E-/---------------------------------------------------------------|
B-/---------------------------------------------------------------|
F#/---------------------------------------------------------------|
B-/---------------------------------------------------------------|

Pre-Chours-X4

Chours-X4

Bridge-X4
            

comments powered by Disqus
↑ Back to top | Stone Sour Tabs for Say Youll Haunt Me. Lyrics for acoustic guitar and electric guitar. Tablatures and chords are parodies/interpretations of the original songs. You may use it for private study, scholarship, research or language learning purposes only