» » »

Say Youll Haunt Me Tabs (ver.2)

Artists:  A B C D E F G H I J K L M N O P Q R S T U V W X Y Z # 

Say Youll Haunt Me Tabs (ver.2)

Stone Sour
Rating:
0/5 (0 votes)

Hard to play? Try these video lessons and learn fast.
                -----------------------------------------------------------------------------
                       Say You'll Haunt Me - Stone Sour

Tuning: Drop B  Guitarist(s): Jim Root (Guitar 1); Josh Rand (Guitar 2)  
  Intro: Guitar 1&2 Clean
e|--5--------------5-----8--------5-----7----5----5-------------------------|
B|----6---5----------6--------------6--------6----6-------------------------|
G|------7--------------7--------------7------7----7-------------------------|
D|--------------------------------------------------------------------------|
A|--------------------------------------------------------------------------|
E|--------------------------------------------------------------------------|
  Verse: Guitar 1 Clean                    Verse: Guitar 2 Clean     
e|--5---------------------|               e|--8--5-------|
B|---6-5--5--5--5---------|               B|-------------|
G|----7-7--7--7--7-7------|               G|-------------|
D|-------7--7--7--7-------|  X8           D|-------------|
A|------------------------|               A|-------------|
E|------------------------|               E|-------------|
  Pre-Chorus: Guitar 1 Distorted                Pre-Chorus: Guitar 2 Clean
    Pm------------|    Pm------------|
e|----------------------------------------|     e|--8--5--|     
B|----------------------------------------|     B|--------|
G|----------------------------------------|     G|--------|
D|--7-777777777777-559-7-777777777777-559-|     D|--------|
A|--5-555555555555-337-5-555555555555-337-|     A|--------|
E|----------------------------------------|     E|--------|
  Chorus: Guitar 1&2 Distorted
e|--------------------------------------------------------------------------|
B|--------------------------------------------------------------------------|
G|--------------------------------------------------------------------------|
D|--777775-10-10101010/-12-10/-12--555555-9-7-7777/9-7/9--------------------|
A|--555553-8—-8-8-8-8-/-10-8-/-10--333330-7-5-5555/7-5/7--------------------|
E|--------------------------------------------------------------------------|
  Pre-Verse/ Main Riff: Guitar 1&2 Distorted
e|--------------------------------------------------------------------------|
B|--------------------------------------------------------------------------|
G|--------------------------------------------------------------------------|
D|--77--577--10-7--577--577--577--10-7--577---------------------------------|
A|--55--355--8--5--355--355--355--8--5--355---------------------------------|
E|--------------------------------------------------------------------------|
  Verse 2: Same as Verse 1
  Chorus 2: Same as Chorus 1
  Pre-Breakdown: Same as Pre-Verse
  Breakdown: Guitar 2 does the same as Pre-Verse/ Main Riff as does Guitar 1 for 
part of the breakdown
  Breakdown: Guitar 1 Distorted
e|--------------------------12~12~12~12~13~13~15~15~----17\-----------------|
B|--10~10~10~10~12~12~13~13~10~10~10~10~12~12~13~13~------------------------|
G|--------------------------------------------------------------------------|
D|--------------------------------------------------------------------------|
A|--------------------------------------------------------------------------|
E|--------------------------------------------------------------------------|
  Solo: Guitar 1 (Guitar 2 plays the Guitar 2 Verse part during the solo)
e|--/17-------15-------------------------------------15-15--17-17-15--|
B|---------15----15-18-17-15-13—15-15--17-17--18-18-------------------|
G|--------------------------------------------------------------------|
D|--------------------------------------------------------------------| X2
A|--------------------------------------------------------------------|
E|--------------------------------------------------------------------|

e|--17----------------------------------------------------------------------|
B|----18-17-----------------------------------------------------------------|
G|---------17------------------------------14-15-19-17-15-14-15-17-15-14-15-|
D|-----------17-15-14-15-19-17-15-14-/\/-17---------------------------------|
A|--------------------------------------------------------------------------|
E|--------------------------------------------------------------------------|

e|---------------/17-------15--------------------------15~17~---------------|
B|-----------------------15----15-18-17-15-13-15~17~18~---------------------|
G|--------------------------------------------------------------------------|
D|--14h15p14----------------------------------------------------------------|
A|----------17-15-----------------------------------------------------------|
E|--------------------------------------------------------------------------|
 After the solo, play the Chorus, then the Main Riff then end on
e|---------|
B|---------|
G|---------|
D|--57777--|
A|--35555--|
E|---------|

************************************

| /   slide up
| \   slide down
| h   hammer-on
| p   pull-off
| ~   vibrato
| +   harmonic
| x   Mute note
| b   Bend
| Pm  Palm Mute
            
Hard to play? Try these video lessons and learn fast. | Correct




comments powered by Disqus
↑ Back to top | Tablatures and chords are parodies/interpretations of the original songs. You may use it for private study, scholarship, research or language learning purposes only