>
 >
Reborn 3

Reborn 3 Guitar Tabs

Stone  Sour - Reborn 3 chords, tabs, tablatures, lyrics

Guitar lessons | Add/correct | Request | Top 50 tabs Artists:  A B C D E F G H I J K L M N O P Q R S T U V W X Y Z 0-9

Reborn 3 Guitar Tabs – Stone Sour

CD, Sheet music, Poster

Do you like Reborn 3? Share with your friends now
Bass TabsTabsTabs v2Tabs v3Tabs v4Tabs v5
---------------------------------------------------------------------
-------------------------------------------------------------------------------

Tuning: C# (1.5 steps down)

stone sour usually uses drop B tunning but this song is without the dropped B .That makes it C#

i wasnt able to figure out guitar 2 in verse

intro
C#|-----------------------------------------------------------------|
G#|-----------------------------------------------------------------|
E |-----------------------------------------------------------------|
B |---------5/4/5---------------------5/4/5-------------------------|
F#|-2-2-2-2-3/2/3-2-2-2--5/8--2-2-2-2-3/2/3-5-5-5-8-8-8-7-7---------|
C#|-0-0-0-0-------0-0-0--3/6--0-0-0-0-------3-3-3-6-6-6-5-5---------|
    * * * *       * * *       * * * *       * * * * * * * *
C#|-----------------|
G#|-----------------|
E |-----10-----9----|
B |-7-9----7-9------|
F#|-----------------|
C#|-----------------|

verse (keep on strumming these octaves)
C#|---------------------------------------------------------|
G#|---------------------------------------------------------|
E |-9--------7--------12--11--------------------------------|
B |---------------------------------------------------------|
F#|-7--------5--------10---9--------------------------------|
C#|---------------------------------------------------------|

prechorus
C#|-------------------------------------------------------------------------|
G#|-------------------------------------------------------------------------|
E |-------------------------------------------------------------------------|
B |-------------------------------------------------------------------------|
F#|-0-2-0-2-3-2-0-2--0-2-0-2-3-2-0-2--0-2-0-2-3-2-0-2--0-2-0-2-3-2-0-2------|
C#|-------------------------------------------------------------------------|

chorus
C#|-------------------------------------------------------------------------|
G#|-------------------------------------------------------------------------|
E |-------------------------------------------------------------------------|
B |-------------------------------------------------------------------------|
F#|-2-2---------2-2---------2-2--------5-2--3-0-----------------------------|
C#|-0-0-333333--0-0-333333--0-0-333333-----------7-3--5-2-------------------|
        ''''''      ''''''      '''''' natural harmonics

intro
C#|-----------------------------------------------------------------|
G#|-----------------------------------------------------------------|
E |-----------------------------------------------------------------|
B |---------5/4/5---------------------5/4/5-------------------------|
F#|-2-2-2-2-3/2/3-2-2-2--5/8--2-2-2-2-3/2/3-5-5-5-8-8-8-7-7---------|
C#|-0-0-0-0-------0-0-0--3/6--0-0-0-0-------3-3-3-6-6-6-5-5---------|
    * * * *       * * *       * * * *       * * * * * * * *
C#|-----------------|
G#|-----------------|
E |-----10-----9----|
B |-7-9----7-9------|
F#|-----------------|
C#|-----------------|

verse (keep on strumming these octaves)
C#|---------------------------------------------------------|
G#|---------------------------------------------------------|
E |-9--------7--------12--11--------------------------------|
B |---------------------------------------------------------|
F#|-7--------5--------10---9--------------------------------|
C#|---------------------------------------------------------|

prechorus
C#|-------------------------------------------------------------------------|
G#|-------------------------------------------------------------------------|
E |-------------------------------------------------------------------------|
B |-------------------------------------------------------------------------|
F#|-0-2-0-2-3-2-0-2--0-2-0-2-3-2-0-2--0-2-0-2-3-2-0-2--0-2-0-2-3-2-0-2------|
C#|-------------------------------------------------------------------------|

chorus
C#|-------------------------------------------------------------------------|
G#|-------------------------------------------------------------------------|
E |-------------------------------------------------------------------------|
B |-------------------------------------------------------------------------|
F#|-2-2---------2-2---------2-2--------5-2--3-0-----------------------------|
C#|-0-0-333333--0-0-333333--0-0-333333-----------7-3--5-2-------------------|
        ''''''      ''''''      '''''' natural harmonics

C#|----------------------------------------------------------------------------------|
G#|----------------------------------------------------------------------------------|
E |----------------------------------------------------------------------------------|
B |----------------------------------------------------------------------------------|
F#|-2-5-8--2-5-10--2-5-8---8-7----7--------------------------------------------------|
C#|-0-3-6--0-3-8---0-3-6-------10---10-8-10-7----------------------------------------|
                           not sure about this

intro
C#|-----------------------------------------------------------------|
G#|-----------------------------------------------------------------|
E |-----------------------------------------------------------------|
B |---------5/4/5---------------------5/4/5-------------------------|
F#|-2-2-2-2-3/2/3-2-2-2--5/8--2-2-2-2-3/2/3-5-5-5-8-8-8-7-7---------|
C#|-0-0-0-0-------0-0-0--3/6--0-0-0-0-------3-3-3-6-6-6-5-5---------|
    * * * *       * * *       * * * *       * * * * * * * *
C#|-----------------|
G#|-----------------|
E |-----10-----9----|
B |-7-9----7-9------|
F#|-----------------|
C#|-----------------|

bridge (not to sure...just fool around with it)
C#|----------------------------------------------------|
G#|----------------------------------------------------|
E |------12-12--9-9--7-7--9-9--7-7--5-5--7-7-----------|
B |-7-7------------------------------------------------|
F#|----------------------------------------------------|
C#|----------------------------------------------------|

prechorus
C#|-------------------------------------------------------------------------|
G#|-------------------------------------------------------------------------|
E |-------------------------------------------------------------------------|
B |-------------------------------------------------------------------------|
F#|-0-2-0-2-3-2-0-2--0-2-0-2-3-2-0-2--0-2-0-2-3-2-0-2--0-2-0-2-3-2-0-2------|
C#|-------------------------------------------------------------------------|

chorus
C#|-------------------------------------------------------------------------|
G#|-------------------------------------------------------------------------|
E |-------------------------------------------------------------------------|
B |-------------------------------------------------------------------------|
F#|-2-2---------2-2---------2-2--------5-2--3-0-----------------------------|
C#|-0-0-333333--0-0-333333--0-0-333333-----------7-3--5-2-------------------|
        ''''''      ''''''      '''''' natural harmonics

C#|----------------------------------------------------------------------------------|
G#|----------------------------------------------------------------------------------|
E |----------------------------------------------------------------------------------|
B |----------------------------------------------------------------------------------|
F#|-2-5-8--2-5-10--2-5-8---8-7----7--------------------------------------------------|
C#|-0-3-6--0-3-8---0-3-6-------10---10-8-10-7----------------------------------------|
                           not sure about this

intro
C#|-----------------------------------------------------------------|
G#|-----------------------------------------------------------------|
E |-----------------------------------------------------------------|
B |---------5/4/5---------------------5/4/5-------------------------|
F#|-2-2-2-2-3/2/3-2-2-2--5/8--2-2-2-2-3/2/3-5-5-5-8-8-8-7-7---------|
C#|-0-0-0-0-------0-0-0--3/6--0-0-0-0-------3-3-3-6-6-6-5-5---------|
    * * * *       * * *       * * * *       * * * * * * * *
C#|-----------------|
G#|-----------------|
E |-----10-----9----|
B |-7-9----7-9------|
F#|-----------------|
C#|-----------------|





Comments


Popular Stone Sour tabs & chords
Take A Number 2 Bass Tabs
Zzyzx Rd Chords
666inhale666 Tabs
Get Inside 3 Tabs
Hell And Consequences 3 Tabs
Lnhale Tabs
Say Youll Haunt Me 7 Tabs
Through Glass 1 Tabs
Imperfect Ukulele
Through Glass Ukulele


Song lyrics



↑ Back to top | Tablatures and chords are parodies/interpretations of the original songs. You may use it for private study, scholarship, research or language learning purposes only
© 2014 AZChords.com Contact us | Privacy policy | DMCA | Add/correct tabs | Request tabs | Top 50 tabs