» » »

Orchids Bass tabs (ver.3)

Artists:  A B C D E F G H I J K L M N O P Q R S T U V W X Y Z # 

Orchids Bass tabs (ver.3)

Stone Sour
Rating:
0/5 (0 votes)

Tabs too difficult? Try these video lessons and learn fast.
                Band: Stone Sour
Label: Roadrunner
Track: #2 Orchids
Bassist: Shawn Econormaki
Tuning: Five String/Standard, Four String/Five String (BEAD)
Notes: This song is a very simple riff, I play it on both a Schecter Stilleto 5, and a 
Milestone 4. They both sound great. This is my first tab, but rate it according to the 
not because of that.

Starting MIDI:
00:00 - 00:04

Intro:
00:05 -  00:21
G-------------------------------------------------------------------|
D--------9-9h10-9------9-9-12-10------------------------------------|
A-----0--------------0----------------------------------------------|
E--0---------------0------------------------------------------------|
B-------------------------------------------------------------------|

G-------------------------------------------------------------------|
D--------9-9h10-9-------9-9-12-10-----------------------------------|
A-----0-----------9--9----------------------------------------------|
E--0----------------9-----------------------------------------------|
B-------------------------------------------------------------------|

G-------------------------------------------------------------------|
D--------9-9h10-9------9-9-12-10------------------------------------|
A-----0-------------0-----------------------------------------------|
E--0--------------0-------------------------------------------------|
B-------------------------------------------------------------------|

G-------------------------------------------------------------------|
D--------9-9h10-9------9-9-12-10------------------------------------|
A-----0-----------9---9---------------------------------------------|
E--0----------------9-----------------------------------------------|
B-------------------------------------------------------------------|
or

G-------------------------------------------------------------------|
D-------------------------------------------------------------------|
A------0-4-4h5-4---0-4-4-7-5----------------------------------------|
E---0------------0--------------------------------------------------|
B-------------------------------------------------------------------|

G-------------------------------------------------------------------|
D-------------------------------------------------------------------|
A------0-4-4h5-4-----4-4-7-5----------------------------------------|
E---0------------4-4------------------------------------------------|
B-----------------4-------------------------------------------------|

G-------------------------------------------------------------------|
D-------------------------------------------------------------------|
A------0-4-4h5-4---0-4-4-7-5----------------------------------------|
E---0------------0--------------------------------------------------|
B-------------------------------------------------------------------|

G-------------------------------------------------------------------|
D-------------------------------------------------------------------|
A------0-4-4h5-4-----4-4-7-5----------------------------------------|
E---0------------4-4------------------------------------------------|
B-----------------4-------------------------------------------------|

I play the bottom one on a four strings, the top one on a five.

Verse 1:
00:22 - 00:46

G-------------------------------------------------------------------|
D-------------------------------------------------------------------|
A-------------------------------------------------------------------|
E-------------------------------------------------------------------|
B-00000-0-0-0-00000-0-0-0-00000-0-0-0-00000-8p7---------------------|

G-------------------------------------------------------------------|
D-------------------------------------------------------------------|
A-------------------------------------------------------------------|
E-------------------------------------------------------------------|
B-00000-0-0-0-00000-0-0-0-00000-0-0-0-00000-8p7---------------------|

G-------------------------------------------------------------------|
D-------------------------------------------------------------------|
A-------------------------------------------------------------------|
E-------------------------------------------------------------------|
D-0-0-0-0-0-0-0-0-0-0-0-0-0-0-0-0-----------------------------------|

Pre-Chorus:
00:47- 01:04

G-------------------------------------------------------------------|
D-------------------------------------------------------------------|
A-------------------------------------------------------------------|
E------5~-----------------------------------------------------------|
B-7-5-8------7-5-8--------------------------------------------------|

G-------------------------------------------------------------------|
D-------------------------------------------------------------------|
A-------------------------------------------------------------------|
E------5~-----------------------------------------------------------|
B-7-5-8------7-5-8--------------------------------------------------|

G-------------------------------------------------------------------|
D-------------------------------------------------------------------|
A-------------------------------------------------------------------|
E------5~-----------------------------------------------------------|
B-7-5-8------7-5-8--------------------------------------------------|

G-------------------------------------------------------------------|
D-------------------------------------------------------------------|
A-------------------------------------------------------------------|
E------5~-----------------------------------------------------------|
B-7-5-8------7-5-8--------------------------------------------------|

Chorus:
01:05 - 01:21

G-------------------------------------------------------------------|
D-------------------------------------------------------------------|
A-------------------------------------------------------------------|
E-------------------------------------------------------------------|
B-0-0-3-0-6-5-0-0-3-0-6-5-3-3-3-------------------------------------|

G-------------------------------------------------------------------|
D-------------------------------------------------------------------|
A-------------------------------------------------------------------|
E-------------------------------------------------------------------|
B-0-0-3-0-6-5-0-0-3-0-6-5-0-0-3-0-6-5-0-0-3-3-3---------------------|

Pre-Verse
01:22 - 01:26

G-------------------------------------------------------------------|
D-------------------------------------------------------------------|
A-------------------------------------------------------------------|
E-------------------------------------------------------------------|
B-0-000-0-0-0-0-----------------------------------------------------|

G-------------------------------------------------------------------|
D-------------------------------------------------------------------|
A-------------------------------------------------------------------|
E-------------------------------------------------------------------|
B-0-000-0-0-0-0-----------------------------------------------------|

Verse 2
01:27 - 01:47

G-------------------------------------------------------------------|
D-------------------------------------------------------------------|
A-------------------------------------------------------------------|
E-------------------------------------------------------------------|
B-00000-0-0-0-00000-0-0-0-00000-0-0-0-00000-8p7---------------------|

G-------------------------------------------------------------------|
D-------------------------------------------------------------------|
A-------------------------------------------------------------------|
E-------------------------------------------------------------------|
B-00000-0-0-0-00000-0-0-0-00000-0-0-0-00000-8p7---------------------|

G-------------------------------------------------------------------|
D-------------------------------------------------------------------|
A-------------------------------------------------------------------|
E-------------------------------------------------------------------|
D-0-0-0-0-0-0-0-0-0-0-0-0-0-0-0-0-----------------------------------|

Pre-Chorus
01:48 - 02:02

G-------------------------------------------------------------------|
D-------------------------------------------------------------------|
A-------------------------------------------------------------------|
E------5~-----------------------------------------------------------|
B-7-5-8------7-5-8--------------------------------------------------|

G-------------------------------------------------------------------|
D-------------------------------------------------------------------|
A-------------------------------------------------------------------|
E------5~-----------------------------------------------------------|
B-7-5-8------7-5-8--------------------------------------------------|

G-------------------------------------------------------------------|
D-------------------------------------------------------------------|
A-------------------------------------------------------------------|
E------5~-----------------------------------------------------------|
B-7-5-8------7-5-8--------------------------------------------------|

G-------------------------------------------------------------------|
D-------------------------------------------------------------------|
A-------------------------------------------------------------------|
E------5~-----------------------------------------------------------|
B-7-5-8------7-5-8--------------------------------------------------|

Chorus:
02:03 - 02:18

G-------------------------------------------------------------------|
D-------------------------------------------------------------------|
A-------------------------------------------------------------------|
E-------------------------------------------------------------------|
B-0-0-3-0-6-5-0-0-3-0-6-5-3-3-3-------------------------------------|

G-------------------------------------------------------------------|
D-------------------------------------------------------------------|
A-------------------------------------------------------------------|
E-------------------------------------------------------------------|
B-0-0-3-0-6-5-0-0-3-0-6-5-0-0-3-0-6-5-0-0-3-3-3---------------------|

Bridge:
02:19 - 02:36
G-------------------------------------------------------------------|
D--------9-9h10-9------9-9-12-10------------------------------------|
A-----0--------------0----------------------------------------------|
E--0---------------0------------------------------------------------|
B-------------------------------------------------------------------|

G-------------------------------------------------------------------|
D--------9-9h10-9-------9-9-12-10-----------------------------------|
A-----0------------9--9---------------------------------------------|
E--0-----------------9----------------------------------------------|
B-------------------------------------------------------------------|

G-------------------------------------------------------------------|
D--------9-9h10-9------9-9-12-10------------------------------------|
A-----0--------------0----------------------------------------------|
E--0---------------0------------------------------------------------|
B-------------------------------------------------------------------|

G-------------------------------------------------------------------|
D--------9-9h10-9------9-9-12-10------------------------------------|
A-----0-----------9---9---------------------------------------------|
E--0----------------9-----------------------------------------------|
B-------------------------------------------------------------------|

or

G-------------------------------------------------------------------|
D-------------------------------------------------------------------|
A------0-4-4h5-4---0-4-4-7-5----------------------------------------|
E---0------------0--------------------------------------------------|
B-------------------------------------------------------------------|

G-------------------------------------------------------------------|
D-------------------------------------------------------------------|
A------0-4-4h5-4-----4-4-7-5----------------------------------------|
E---0------------4-4------------------------------------------------|
B-----------------4-------------------------------------------------|

G-------------------------------------------------------------------|
D-------------------------------------------------------------------|
A------0-4-4h5-4---0-4-4-7-5----------------------------------------|
E---0------------0--------------------------------------------------|
B-------------------------------------------------------------------|

G-------------------------------------------------------------------|
D-------------------------------------------------------------------|
A------0-4-4h5-4-----4-4-7-5----------------------------------------|
E---0------------4-4------------------------------------------------|
B-----------------4-------------------------------------------------|

I play the bottom one on a four strings, the top one on a five.

MIDI:
02:37 - 02:52

Verse 3:
02:53 - 03:26

G-------------------------------------------------------------------|
D-------------------------------------------------------------------|
A-------------------------------------------------------------------|
E-------------------------------------------------------------------|
B-00000-0-0-0-00000-0-0-0-00000-0-0-0-00000-8p7---------------------|

G-------------------------------------------------------------------|
D-------------------------------------------------------------------|
A-------------------------------------------------------------------|
E-------------------------------------------------------------------|
B-00000-0-0-0-00000-0-0-0-00000-0-0-0-00000-8p7---------------------|

G-------------------------------------------------------------------|
D-------------------------------------------------------------------|
A-------------------------------------------------------------------|
E-------------------------------------------------------------------|
D-0-0-0-0-0-0-0-0-0-0-0-0-0-0-0-0-----------------------------------|

Pre-Chorus:
03:27 - 03:44

G-------------------------------------------------------------------|
D-------------------------------------------------------------------|
A-------------------------------------------------------------------|
E------5~-----------------------------------------------------------|
B-7-5-8------7-5-8--------------------------------------------------|

G-------------------------------------------------------------------|
D-------------------------------------------------------------------|
A-------------------------------------------------------------------|
E------5~-----------------------------------------------------------|
B-7-5-8------7-5-8--------------------------------------------------|

G-------------------------------------------------------------------|
D-------------------------------------------------------------------|
A-------------------------------------------------------------------|
E------5~-----------------------------------------------------------|
B-7-5-8------7-5-8--------------------------------------------------|

G-------------------------------------------------------------------|
D-------------------------------------------------------------------|
A-------------------------------------------------------------------|
E------5~-----------------------------------------------------------|
B-7-5-8------7-5-8--------------------------------------------------|

Chorus:
03:45 - 04:02

G-------------------------------------------------------------------|
D-------------------------------------------------------------------|
A-------------------------------------------------------------------|
E-------------------------------------------------------------------|
B-0-0-3-0-6-5-0-0-3-0-6-5-3-3-3-------------------------------------|

G-------------------------------------------------------------------|
D-------------------------------------------------------------------|
A-------------------------------------------------------------------|
E-------------------------------------------------------------------|
B-0-0-3-0-6-5-0-0-3-0-6-5-0-0-3-0-6-5-0-0-3-3-3---------------------|


Pre-Verse
04:03 - 04:19

G-------------------------------------------------------------------|
D-------------------------------------------------------------------|
A-------------------------------------------------------------------|
E-------------------------------------------------------------------|
B-0-000-0-0-0-0-----------------------------------------------------|

G-------------------------------------------------------------------|
D-------------------------------------------------------------------|
A-------------------------------------------------------------------|
E-------------------------------------------------------------------|
B-0-000-0-0-0-0-----------------------------------------------------|

G-------------------------------------------------------------------|
D-------------------------------------------------------------------|
A-------------------------------------------------------------------|
E-------------------------------------------------------------------|
B-0-000-0-0-0-0-----------------------------------------------------|

G-------------------------------------------------------------------|
D-------------------------------------------------------------------|
A-------------------------------------------------------------------|
E-------------------------------------------------------------------|
B-0-000-0-0-0-0-----------------------------------------------------|

G-------------------------------------------------------------------|
D-------------------------------------------------------------------|
A-------------------------------------------------------------------|
E-------------------------------------------------------------------|
B-0-000-0-0-0-0-----------------------------------------------------|

G-------------------------------------------------------------------|
D-------------------------------------------------------------------|
A-------------------------------------------------------------------|
E-------------------------------------------------------------------|
B-0-000-0-0-0-0-----------------------------------------------------|

G-------------------------------------------------------------------|
D-------------------------------------------------------------------|
A-------------------------------------------------------------------|
E-------------------------------------------------------------------|
B-0-000-0-0-0-0-----------------------------------------------------|

G-------------------------------------------------------------------|
D-------------------------------------------------------------------|
A-------------------------------------------------------------------|
E-------------------------------------------------------------------|
B-0-000-0-0-0-0-----------------------------------------------------|

End:
04:19 - 04:24

| /  slide up
| \  slide down
| h  hammer-on
| p  pull-off
| ~  vibrato
| +  harmonic
| x  Mute note
            
Tabs too difficult? Try these video lessons and learn fast.


comments powered by Disqus
↑ Back to top | Tablatures and chords are parodies/interpretations of the original songs. You may use it for private study, scholarship, research or language learning purposes only