>
 >
Monolith 3

Monolith 3 Guitar Tabs

Stone  Sour - Monolith 3 chords, tabs, tablatures, lyrics

Guitar lessons | Add/correct | Request | Top 50 tabs Artists:  A B C D E F G H I J K L M N O P Q R S T U V W X Y Z 0-9

Monolith 3 Guitar Tabs – Stone Sour

CD, Sheet music, Poster

Do you like Monolith 3? Share with your friends now
Bass TabsTabsTabs v2Tabs v3Tabs v4
Drop D Tuning, Down 1 1/2 Steps:
(Low To High) B-F#-B-E-G#-C#

intro (with flanger, let ring throughout)
C#-------------------------------------------------------------|
G#-------------------------------------------------------------|
 E----7-----------7-----------7-----------7-----------7--------|
 B-7h8-8-7~----7h8-8-7~----7h8-8-7~----7h8-8-7~----7h8-8-------|
F#-------------------------------------------------------------|
 B-------------------------------------------------------------|

C#--------------------------------------------------------17---------------|
G#--------------------------------------------15------------15-------------|
 E------------7-------------7------------14h15--15-14~--------15p14--------|
 B7~-------7h8-8-7~------7h8-8-7~----(7)/----------------------------------|
F#-------------------------------------------------------------------------|
 B-------------------------------------------------------------------------|
                                                                           |
C#-------------------------------------------------------------------------|
G#-------------------------------------------------------------------------|
 E-------------------------------------------------------------------------|
 B--7-7--7-7-----7-7--7-7------7-7--7-7------------7-7--7-7--------7-7--7-7|
F#--5-5--5-5-----5-5--5-5------5-5--5-5------------5-5--5-5--------5-5--5-5|
 B--0-0--0-0-----0-0--0-0------0-0--0-0------------0-0--0-0--------0-0--0-0|

verse
C#-----------------------------------------------------------------|
G#-----------------------------------------------------------------|
 E-----------------------------------------------------------------|
 B-----------------------------------------------------------------|
F#-----------------------------------------------------------------|
 B-7-7-7-7-8-8-8-8-7-7-7-7-8-8-8-8-7-7-7-7-8-8-8-8-7-7-7-7-8-8-8-8-|
PM................................................................
 1.Is      This    Wrong   Of Me?     I've Come So Far     So Fast
 2.Vi  -  sions    Plague  My Dreams. Oh God,  What Beast did This?

C#-----------------------------------------------------------------|
G#-----------------------------------------------------------------|
 E-----------------------------------------------------------------|
 B-----------------------------------------------------------------|
F#-----------------------------------------------------------------|
 B-7-7-7-7-8-8-8-8-7-7-7-7-8-8-8-8-7-7-7-7-8-8-8-8-7-7-7-7-8-8-8-8-|
PM.................................................

       I'm In The Dark__   'bout a lot of things_  Seems so Real TO

C#-----------------------------------------------------------------|
G#-----------------------------------------------------------------|
 E-----------------------------------------------------------------|
 B-----------------------------------------------------------------|
F#-7-7-7-7-8-8-8-8-7-7-7-7-8-8-8-8-7-7-7-7-8-8-8-8-7-7-7-7-8-8-8-8-|
 B-7-7-7-7-8-8-8-8-7-7-7-7-8-8-8-8-7-7-7-7-8-8-8-8-7-7-7-7-8-8-8-8-|
   ME!        I'VE CONSECTRATED,__    I Wish Tha I Could Hate It.
   ME!        I've DESECRATED!____    My God, I Love To Hate_ It.

C#-----------------------------------------------------------------|
G#-----------------------------------------------------------------|
 E-----------------------------------------------------------------|
 B-----------------------------------------------------------------|
F#-7-7-7-7-8-8-8-8-7-7-7-7-8-8-8-8-7-7-7-7-8-8-8-8-7-7-7-7-8-8-8-8-|
 B-7-7-7-7-8-8-8-8-7-7-7-7-8-8-8-8-7-7-7-7-8-8-8-8-7-7-7-7-8-8-8-8-|
   I  Saw  My  Bloody  Hands  Come  Clean  Before  My  Eyes!__  And
   My Hands Are Bloody Again__       There's No Reason  Why!__  And

Chorus (Flanger Off)
C#-------------------------------------------------------------|
G#-------------------------------------------------------------|
 E-14----10-----9-----7----(7\\\5)-5---5///9--9-----9----9\7---|
 B--x-----x-----x-----x----(-----)-x---x------x-----x----x-x---|
F#-12-----8-----7-----5----(5\\\3)-3---3///7--7-----7----7\5---|
 B-------------------------------------------------------------|
                                                               |
C#-------------------------------------------------------------|
G#-------------------------------------------------------------|
 E-------------------------------------------------------------|
 B-7--(7)\3-----2----------------------------------------------|
F#-5--(5)\1-----0-----5---------5--3---3///7--7-----7----7-7---|
 B--------------------5---------5--3---3///7--7-----7----7-7---|
   I    Hear My Wants and Needs again. Can You Help Me?
   I    Feel The Strain Inside My Mind, Am I Crazy?____

C#-------------------------------------------------------------|
G#-------------------------------------------------------------|
 E-7---10-----12-----12----14--(14)/////15--14-----14\\\\\9--9-|
 B-x----x------x------x-----x--(--)----------x------x------x---|
F#-5----8-----10-----10----12--(12)/////13--12-----12\\\\\7--7-|
 B-------------------------------------------------------------|
   I   Hear a Different    kind  a    -   gain.  Someone Stop Me
   I   Need   To     Shed  My  Skin, Reveal This Monolith Within.

C#-------------------------------------------------------------|
G#-------------------------------------------------------------|
 E-------------------------------------------------------------|
 B-------------------------------------------------------------|
F#-0-0-0--0-0-0--0-0-0--0-0-0--0-0-0--0-0-0--0-0-0--0-0-0------|
 B-0-0-0--0-0-0--0-0-0--0-0-0--0-0-0--0-0-0--0-0-0--0-0-0------|
PM........................................................

Solo
C#-------------------------------------------------------------|
G#-------------------------------------------------------------|
 E-14---15---14---(14)\\9//12---(12)\\9---10-----9----(9)/-----|
 B-------------------------------------------------------------|
F#-------------------------------------------------------------|
 B-------------------------------------------------------------|
                                                               |
C#-------------------------------------------------------------|
G#-------------------------------------------------------------|
 E-------------------------------------------------------------|
 B-------------------------------------------------------------|
F#-7-7-7-7-8-8-8-8-5-5-5-5-7-7-7-7--0-0-0--0-0-0--0-0-0--0-0-0-|
 B-7-7-7-7-8-8-8-8-5-5-5-5-7-7-7-7--0-0-0--0-0-0--0-0-0--0-0-0-|
PM............................................................

C#-------------------------13-17-13p12------13-17-13p12--------|
G#------------------------15----------15--15-----------15--15--|
 E-14--15--14--(14)\/14--14-------------14---------------14----|
 B-------------------------------------------------------------|
F#-------------------------------------------------------------|
 B-------------------------------------------------------------|
 Ah_________________
                             1     1      1    1/4  1/4
C#-13h17p13h17-13h17p13----------------------------------------|
G#---------------------15--15br(15)br(15)---------15---15------|
 E-----------------------14---------------17b--17b--17b--------|
 B-------------------------------------------------------------|
F#-------------------------------------------------------------|
 B-------------------------------------------------------------|
                                         Ah_______________

C#----------------------17-15----------------------------------|
G#----------------------------18-18-17-15-17-18-----(18)\------|
 E-17-15-14-15-15-15-14----------------------------------------|
 B-------------------------------------------------------------|
F#-------------------------------------------------------------|
 B-------------------------------------------------------------|

C#-------------------------------------------------------------|
G#-------------------------------------------------13----------|
 E-----------------------------------------12-14h15--15-14-12--|
 B--------------13-15-13-----------12-14-15--------------------|
F#------12-13-15--------12-12-13-15----------------------------|
 B-13-15-------------------------------------------------------|
Ah_____________________________________________________________

C#-------------------------------13---------------------15-17--|
G#-----------------------13-15h16--16-15--------15-16-18-------|
 E------------12-12-14-15---------------17-15-17---------------|
 B-15-15p14-15-------------------------------------------------|
F#-------------------------------------------------------------|
 B-------------------------------------------------------------|
                                                               |
C#-------------------------------------------------------------|
G#-------------------------------------------------------------|
 E-------------------------------------------------------------|
 B-------------------------------------------------------------|
F#----------------------------------------3--------------------|
 B----------------------------------------3--------------------|
 Ah____________
                                                     1   1
C#-17-18-17p15--------15-18-15-17-19-17-15-20-18-20-22b-22b----|
G#------------18-17-18-----------------------------------------|
 E-------------------------------------------------------------|
 B-------------------------------------------------------------|
F#-------------------------------------------------------------|
 B-------------------------------------------------------------|
                                                               |
C#-------------------------------------------------------------|
G#-------------------------------------------------------------|
 E-------------------------------------------------------------|
 B-------------------------------------------------------------|
F#-------3--------------/7-----------------7------------7----7-|
 B-------3--------------/7-----------------7------------7----7-|

Chorus
C#-22----22-22--------22--------22-----------(22)\-------------|
G#-------------------------------------------------------------|
 E-------------------------------------------------------------|
 B-------------------------------------------------------------|
F#-------------------------------------------------------------|
 B-------------------------------------------------------------|
   I  Hear  My  Wants   And   Needs    Again,   Can You Help Me?

Outro
C#-------------------------------------------------------------|
G#-------------------------------------------------------------|
 E-------------------------------------------------------------|
 B--7---------7---------7---------7---------5--5---------------|
F#--5---------5---------5---------5---------3--3---------------|
 B----0-0-0-0---0-0-0-0---0-0-0-0---0-0-0-0--------------------|
PM    .......   .......   .......   .......
Within!

C#-------------------------------------------------------------|
G#-------------------------------------------------------------|
 E------------------------------------------9--9--10-----------|
 B-7---------7---------7---------7----------x--x---x-----------|
F#-5---------5---------5---------5----------7--7---8-----------|
 B---0-0-0-0---0-0-0-0---0-0-0-0---0-0-0-0---------------------|

C#-------------------------------------------------------------|
G#-------------------------------------------------------------|
 E-------------------------------------------------------------|
 B-7-----------------------------------------------------------|
F#-5-----------------------------------------------------------|
 B---*************************---------------------------------|
     (Pick Slide)





Comments


Popular Stone Sour tabs & chords
Idle Hands 2 Bass Tabs
Say Youll Haunt Me 4 Bass Tabs
Zzyzx Rd 2 Bass Tabs
Blue Study 1 Tabs
Bother 8 Tabs
Imperfect 2 Tabs
Monolith 1 Tabs
The Day I Let Go Intro Tabs
Through Glass Live Tabs
Unfinished Tabs


Song lyrics



↑ Back to top | Tablatures and chords are parodies/interpretations of the original songs. You may use it for private study, scholarship, research or language learning purposes only
© 2014 AZChords.com Contact us | Privacy policy | DMCA | Add/correct tabs | Request tabs | Top 50 tabs