» » »

Monolith Tabs (ver.1)

Artists:  A B C D E F G H I J K L M N O P Q R S T U V W X Y Z # 

Monolith Tabs (ver.1)

Stone Sour
Rating:
0/5 (0 votes)

Hard to play? Try these video lessons and learn fast.
                Tuning: Drop D, down 1 1/2 steps (B,F#,B,E,G#,C#)

Josh - Lead guitar
Jim - Rhythm

* = p.m
/ = slide
T = tap
^ = bend

Riff A
Josh (0:08)     (0:27)
----------------|------------------17----------|
-----3----------|--------15--------------------|
-2h3---3-2------|-/14h15----15-14^----14-14^---|
---------0------|------------------------------|
----------------|------------------------------|
----------------|------------------------------|

Riff A
Jim (0:20)
-----------------|
-----------------|
-----------------|
-----------------|
-12-12--12-12----|
-12-12--12-12----|

Verse
Josh & Jim (0:30)
--------------------|---------------------|
--------------------|---------------------|
--------------------|---------------------|
--------------------|-7-7-7-7-8-8-8-8-----|
--------------------|-7-7-7-7-8-8-8-8-----|
-7-7-7-7-8-8-8-8----|-7-7-7-7-8-8-8-8-----|
 * * * * * * * *      

Chorus
Jim (0:58)
-------------------|
-------------------|
-------------------|
-12-8-7-5--3---7---|
-12-8-7-5--3---7---|
-12-8-7-5--3---7---|

Chorus  
Josh (1:01)
--------------------------|
--------------------------|
-7-10-12-14-14/15\14-9----|
-x--x--x--x--x/-x\-x-x----|
-5--8-10-12-12/13\12-7----|
--------------------------|

Fill ( 16x )
Josh & Jim (1:18)
--------|
--------|
--------|
-0-0-0--|
-0-0-0--|
-0-0-0--|
 * * *

Verse
Josh & Jim (1:30)
--------------------|---------------------|
--------------------|---------------------|
--------------------|---------------------|
--------------------|-7-7-7-7-8-8-8-8-----|
--------------------|-7-7-7-7-8-8-8-8-----|
-7-7-7-7-8-8-8-8----|-7-7-7-7-8-8-8-8-----|
 * * * * * * * *      

Chorus
Jim (1:53)
-------------------|
-------------------|
-------------------|
-12-8-7-5--3---7---|
-12-8-7-5--3---7---|
-12-8-7-5--3---7---|

Chorus  
Josh (2:00)
--------------------------|
--------------------------|
-7-10-12-14-14/15\14-9----|
-x--x--x--x--x/-x\-x-x----|
-5--8-10-12-12/13\12-7----|
--------------------------|

Fill ( 16x )
Josh & Jim (2:16)
--------|
--------|
--------|
-0-0-0--|
-0-0-0--|
-0-0-0--|
 * * *

Solo
Josh (2:27)				
		Trill with slight differences
C#------------------------------------------------17p-15p-12---12< 12< 10-----------
G#--10--11--10------------------10--11--10------------------------------------------
E---------------9/12----9-10-9-----------------9------------------------------------
B-----------------------------------------------------------------------------------
F#----------------------------------------------------------------------------------
B-----------------------------------------------------------------------------------

C#--10-10-10-8-10-8---------------------------------17-15-13-12-10-12-12/13---------
G#------------------------11-10-11-11-11-10-10--------------------------------------
E-----------------------------------------------------------------------------------
B-----------------------------------------------------------------------------------
F#----------------------------------------------------------------------------------
B-----------------------------------------------------------------------------------

C#-----------------------------------------------------------23-23-22~--------------
G#----------------------------------------------------------------------------------
E-----------------------------------------------------------------------------------
B---------(trill with slight palm mute)---------------------------------------------
F#--10-12-13-12-13-15-13-15-17-15-17-18--------------------
B-----------------------------------------------------------------------------------
(Repeat all the way up) 

Chorus
Jim (2:51)
-------------------|
-------------------|
-------------------|
-12-8-7-5--3---7---|
-12-8-7-5--3---7---|
-12-8-7-5--3---7---|

Chorus  
Josh (2:57)
--------------------------|
--------------------------|
-7-10-12-14-14/15\14-9----|
-x--x--x--x--x/-x\-x-x----|
-5--8-10-12-12/13\12-7----|
--------------------------|

Ending
Jim (3:14)
-------------------------------------------------|
-------------------------------------------------|
-------------------------------------------------|
----x-x-x----x-x-x----x-x-x----x-x-x-------------|
----x-x-x----x-x-x----x-x-x----x-x-x-------------|
-12-x-x-x-12-x-x-x-12-x-x-x-12-x-x-x-12--10-10---|

Ending
Josh (3:28)
-------------------------------------------------------|
-------------------------------------------------------|
-9--9--10------9--9--10------9--9--10------9--9--10----|
-x--x---x------x--x---x------x--x---x------x--x---x----|
-7--7---8------7--7---8------7--7---8------7--7---8----|
-------------------------------------------------------|

Jim (3:38)		Josh (pick scr*pes)
------------------|------------------|
------------------|------------------|
------------------|------------------|
---12\\\\---------|------------------|
---12\\\\---------|------------------|
---12\\\\---------|-/////\\\\///\//--|
            
Hard to play? Try these video lessons and learn fast. | Correct




comments powered by Disqus
↑ Back to top | Tablatures and chords are parodies/interpretations of the original songs. You may use it for private study, scholarship, research or language learning purposes only