» » »

Mission Statement Bass tabs (ver.1)

Artists:  A B C D E F G H I J K L M N O P Q R S T U V W X Y Z # 

Mission Statement Bass tabs (ver.1)

Stone Sour
Rating:
0/5 (0 votes)
Tabs too difficult? Try these video lessons and learn fast.
                Artist - Stone Sour
Album - Audio Secrecy
Track - Mission Statement
Tuning - Dropped D (DADG)

NB - (n) notes inside parentheses are optional 
   - where two 'o' are used, repeat between (if repeat is more than x2, it will be ABOVE bar)

Intro                                                            x3
G|--------------------------------|--------------------------------|
D|o0---1---0----------------------|-------------------------------o|
A|o-------------------------------|-------------------------------o|
D|--------------------------------|--------------------------------|

G|--------------------------------|--------------------------------|
D|-0------------------------------|--------------------------------|
A|--------------------------------|-1---------3---------0----------|
D|--------------------------------|--------------------------------|
                                                                 x4
G|--------------------------------|--------------------------------|
D|o-------------------------------|-------------------------------o|
A|o-------------------------------|-------------------------------o|
D|-0---0---0---0---0-0-0-0-0---0--|-0---0---0---0---0-0-0---0-0-0--|  

Verse 1                                                          x8
G|--------------------------------|--------------------------------|
D|o-------------------------------|-------------------------------o|
A|o-------------------------------|-------------------------------o|
D|-0---0---0---0---0---0---0---0--|-0---0---0---0---0---0---0---0--|

Pre-chorus                                                       x4
G|--------------------------------|--------------------------------|
D|o-------------------------------|-------------------------------o|
A|o1---1---1---0---0---0---0---0--|-1---1---1---3---3---3---3---3-o|
D|--------------------------------|--------------------------------|

Chorus 
G|--------------------------------|--------------------------------|
D|o0---0---0---0---0---0---0------|--------------------------------|
A|o----------------------------1--|-1---1---1---1---1---1---1---1--|
D|--------------------------------|--------------------------------|

G|--------------------------------|--------------------------------|
D|--------------------------------|-------------------------------o|
A|--------------------------------|-------------------------------o|
D|-5---5---5---5---5---5---5---1--|-1---1---1---1---1---1---1---1--|

G|--------------------------------|--------------------------------|
D|o0---1---0----------------------|-0---1-------4-------0---1---0--|
A|o-------------------------------|--------------------------------|
D|--------------------------------|--------------------------------|

G|--------------------------------|--------------------------------|
D|-0------------------------------|-------------------------------o|
A|--------------------------------|-1---------3---------0---------o|
D|--------------------------------|--------------------------------|

Bridge                                                           x4
G|--------------------------------|--------------------------------|
D|o-------------------------------|-------------------------------o|
A|o-------------------------------|-------------------------------o|
D|-0---0---0---0---0-0-0-0-0---0--|-0---0---0---0---0-0-0---0-0-0--|  

Verse 2                                                          x8
G|--------------------------------|--------------------------------|
D|o-------------------------------|-------------------------------o|
A|o-------------------------------|-------------------------------o|
D|-0---0---0---0---0---0---0---0--|-0---0---0---0---0---0---0---0--|

Pre-chorus                                                       x4
G|--------------------------------|--------------------------------|
D|o-------------------------------|-------------------------------o|
A|o1---1---1---0---0---0---0---0--|-1---1---1---3---3---3---3---3-o|
D|--------------------------------|--------------------------------|

Chorus 
G|--------------------------------|--------------------------------|
D|o0---0---0---0---0---0---0------|--------------------------------|
A|o----------------------------1--|-1---1---1---1---1---1---1---1--|
D|--------------------------------|--------------------------------|

G|--------------------------------|--------------------------------|
D|--------------------------------|-------------------------------o|
A|--------------------------------|-------------------------------o|
D|-5---5---5---5---5---5---5---1--|-1---1---1---1---1---1---1---1--|

G|--------------------------------|--------------------------------|
D|o0---1---0----------------------|-0---1-------4-------0---1---0--|
A|o-------------------------------|--------------------------------|
D|--------------------------------|--------------------------------|

G|--------------------------------|--------------------------------|
D|-0------------------------------|-------------------------------o|
A|--------------------------------|-1---------3---------0---------o|
D|--------------------------------|--------------------------------|

Pre-solo                                                         x3
G|--------------------------------|--------------------------------|
D|o-------------------------------|-------------------------------o|
A|o-------------------------------|-------------------------------o|
D|-0---0---0---0---0-0-0-0-0---0--|-0---0---0---0---0-0-0---0-0-0--|

G|--------------------------------|--------------------------------|
D|--------------------------------|--------------------------------|
A|--------------------------------|--------------------------------|
D|-0---0---0---0---0-0-0-0-0---0--|--------------------------------|

Solo
G|--------------------------------|--------------------------------|
D|o-------------------------------|--------------------------------|
A|o-------------------------------|--------------------------------|
D|-0---0---0---0---0---0---0---0--|-0---0---0---0---0---0---0---0--|
                                                         
G|--------------------------------|--------------------------------|
D|--------------------------------|-------------------------------o|
A|--------------------------------|-------------------------------o|
D|-0---0---0---0---0---0---0---0--|-0---0---0---0---5--(0)--1--(0)-|

G|--------------------------------|--------------------------------|
D|o-------------------------------|--------------------------------|
A|o-------------------------------|--------------------------------|
D|-0-0-0---0-0-0---0-0-0---0-0-0--|-0-0-0---0-0-0---0-0-0---0-0-0--|
                                                         
G|--------------------------------|--------------------------------|
D|--------------------------------|-------------------------------o|
A|--------------------------------|-------------------------------o|
D|-0-0-0---0-0-0---0-0-0---0-0-0--|-0-0-0---0-0-0---5--(0)--1--(0)-|

Post-solo
G|---------2-----------2-------2--|---------3-----------3-------3--|
D|-0---0-------0---0-------0------|-0---0-------0---0-------0------|
A|--------------------------------|--------------------------------|
D|--------------------------------|--------------------------------|

G|--------------------------------|--------------------------------|
D|---------5-----------5-------5--|---------5-----------5-------5--|
A|-5---5-------5---5-------5------|-6---6-------6---6-------6------|
D|--------------------------------|--------------------------------|

G|---------2-----------2-------2--|---------3-----------3-------3--|
D|-0---0-------0---0-------0------|-0---0-------0---0-------0------|
A|--------------------------------|--------------------------------|
D|--------------------------------|--------------------------------|

G|--------------------------------|--------------------------------|
D|---------5-----------5-------5--|--------------------------------|
A|-5---5-------5---5-------5------|-3---3---3---3---3---3---3---3--|
D|--------------------------------|--------------------------------|  

Final Chorus 
G|--------------------------------|--------------------------------|
D|o0---0---0---0---0---0---0------|--------------------------------|
A|o----------------------------1--|-1---1---1---1---1---1---1---1--|
D|--------------------------------|--------------------------------|

G|--------------------------------|--------------------------------|
D|--------------------------------|-------------------------------o|
A|--------------------------------|-------------------------------o|
D|-5---5---5---5---5---5---5---1--|-1---1---1---1---1---1---1---1--|

G|--------------------------------|--------------------------------|
D|o0---1---0----------------------|-0---1-------4-------0---1---0--|
A|o-------------------------------|--------------------------------|
D|--------------------------------|--------------------------------|
                                                                 x4
G|--------------------------------|--------------------------------|
D|-0------------------------------|-------------------------------o|
A|--------------------------------|-1---------3---------0---------o|
D|--------------------------------|--------------------------------|

G|--------------------------------|
D|-0---1---0----------------------|
A|--------------------------------|
D|--------------------------------|
            
Tabs too difficult? Try these video lessons and learn fast.


comments powered by Disqus
↑ Back to top | Tablatures and chords are parodies/interpretations of the original songs. You may use it for private study, scholarship, research or language learning purposes only