» » »

Stone Sour, Miracles Tabs (ver.2)

Artists:  A B C D E F G H I J K L M N O P Q R S T U V W X Y Z # 

Miracles Tabs (ver.2)

Stone Sour Tabs
 Rating:
4/5 (4 votes)
Miracles lessons Tabs too difficult? Try these video lessons and learn fast
1
                Group: Stone Sour

Great song by a great band, all comments welcome.

Drop down a half step Eb Ab Db Gb Bb eb (low to high)

Intro:

Played during the intro, and periodically during the intro and verses (by a 2nd guitar).

eb|--------12-10--------------|
Bb|--10-12-------12-10-10h12--|
Gb|---------------------------|
Db|---------------------------|
Ab|---------------------------|
Eb|---------------------------|

First Verse:

Repeat throughout the verses.

eb|----3----------3--|--2-0-------3--|
Bb|----3----------3--|--3-1-------3--|
Gb|----0----------0--|--2-0-------0--|
Db|--2-------0--2----|--0-2-0-0-2----|
Ab|--2-----2-x--2----|----3-2-0-2----|
Eb|--0-----0-3--0----|----------0----|

   I've seen it all and I know better
   I've felt the bitterness and pain
   My soul keeps changing like the weather
   The only constant is the rain
   I've known your black and white intentions
   And there's no room for shades of gray
   I never asked you to conform to me
   I only begged for you to stay

Chorus:

Repeat throughout the chorus.

eb|-------------------|
Bb|-------------------|
Gb|--7-7---4-5---9-7--|
Db|--7-7---4-5---9-7--|
Ab|--5-5---2-3-0-7-5--|
Eb|-------------------|

   I waited here tonight for you to come
   But your love just disappeared
   I'm waiting in the dark for miracles
   But miracles don't happen here
   Miracles don't happen here
   Miracles don't happen here

Played once at the end of the chorus.

eb|--3---3----------------|
Bb|--3---3---------10-12--|
Gb|--5---5-----7-9--------|
Db|--5--------------------|
Ab|--3--------------------|
Eb|-----------------------|

Second Verse:

eb|----3----------3--|--2-0-------3--|
Bb|----3----------3--|--3-1-------3--|
Gb|----0----------0--|--2-0-------0--|
Db|--2-------0--2----|--0-2-0-0-2----|
Ab|--2-----2-x--2----|----3-2-0-2----|
Eb|--0-----0-3--0----|----------0----|

   I still have dreams that we're together
   And I can still taste your skin
   Reminders all around surrounded by your light
   I don't want to die again

A 2nd guitar plays this riff for the remainder of the verse.

eb|------------------------------|
Bb|--12-------12-------12--------|
Gb|-----12-------12-------14-----|
Db|--------14-------14-------14--|
Ab|------------------------------|
Eb|------------------------------|

   I don't deserve to be discovered
   I don't deserve to know you care
   I only want my promised other
   Not someone who isn't there

Chorus:

eb|-------------------|
Bb|-------------------|
Gb|--7-7---4-5---9-7--|
Db|--7-7---4-5---9-7--|
Ab|--5-5---2-3-0-7-5--|
Eb|-------------------|

   I waited here tonight for you to come
   But your love just disappeared
   I'm waiting in the dark for miracles
   But miracles don't happen here
   Miracles don't happen here
   Miracles don't happen here

Played once at the end of the chorus.

eb|--3--|
Bb|--3--|
Gb|--5--|
Db|--5--|
Ab|--3--|
Eb|-----|

Interlude solo:

eb|--------------2-0----------------------------------------10---10-12--|
Bb|--------------3-1-----------------8---8-10-8-10-12-10-12----12-------|
Gb|--------------2-0-------------7-9---9--------------------------------|
Db|--------0-2---0-2-0-0-2-----0----------------------------------------|
Ab|--2---2-x-2-----3-1-0-2---2-x----------------------------------------|
Eb|--0---0-3-0-----------0---0-3----------------------------------------|

Chorus:

eb|-------------------|
Bb|-------------------|
Gb|--7-7---4-5---9-7--|
Db|--7-7---4-5---9-7--|
Ab|--5-5---2-3-0-7-5--|
Eb|-------------------|

   Oh, I waited here all night for you to come
   But your love just disappeared
   I'm waiting in the dark for miracles
   But miracles don't happen here
   I waited here all night for you to come
   But your love just disappeared
   I'm waiting in the dark for miracles
   But miracles don't happen here
   Miracles don't happen here
   Miracles don't happen here
   Miracles don't happen here

Played during the outro.

eb|--3---3---3---3--|
Bb|--3---3---3---3--|
Gb|--5---5---5---5--|
Db|--5---5---5---5--|
Ab|--3---3---3---3--|
Eb|-----------------|
            
Submit corrections

comments powered by Disqus
↑ Back to top | Stone Sour Tabs for Miracles. Lyrics for acoustic guitar and electric guitar. 1 Tablatures and chords are parodies/interpretations of the original songs. You may use it for private study, scholarship, research or language learning purposes only