>
 >
Lnhale

Lnhale Guitar Tabs

Stone  Sour - Lnhale chords, tabs, tablatures, lyrics

Guitar lessons | Add/correct | Request | Top 50 tabs Artists:  A B C D E F G H I J K L M N O P Q R S T U V W X Y Z 0-9

Lnhale Guitar Tabs – Stone Sour

CD, Sheet music, Poster

Do you like Lnhale? Share with your friends now
Tabs
Guitarists:	JOSH RAND AND JAMES ROOT
Tuning:		DROP 3 STEPS TO [B F# B E G# C#]

/ = Slide Up
\ = Slide Down
~ = Bend
. = Palm Mute
x = String Mute
 = Tremelo Picking
_ = Let Ring


INTRO (JIM) 0:00/0:15

C#|-----------------
G#|-----------------
E |-----------------
B |--0--7--6--------
F#|-----------7--8--
B |-----------------  x6

INTRO (JOSH) 0:05/0:15

C#|--------------------
G#|--------------------
E |--------------------
B |--0----7----5----8--
F#|--0----7----5----8--
B |--0----7----5----8-- x1

INTRO 0:15/0:25

C#|-----------------
G#|-----------------
E |-----------------
B |--0--7--6--2--3--
F#|--0--7--6--2--3--
B |--0--7--6--2--3--  x4

VERSE (JIM) 0:25/0:56

C#|---------------------------------
G#|---------------------------------
E |---------------------------------
B |--7--------7-7-7-----------------
F#|--5--------5-5-5--------8-8-8-7--
B |--0--------0-0-0-----------------  x3
              . 

VERSE (JOSH) 0:25/0:56

C#|---------------------------------
G#|--3------------3-----------------
E |--2------------2-----------------
B |--0------------0-----------------
F#|--0------------0-----------------
B |--0------------0-----------------  x3

PRE CHORUS 0:56/1:06

C#|-------------------
G#|-------------------
E |-------------------
B |--0-0-0-0-0-0-0-0--
F#|--0-0-0-0-0-0-0-0--
B |--0-0-0-0-0-0-0-0-- x4
     . . . . . . . . 

CHORUS 1:06/1:28

C#|-----------------
G#|-----------------
E |-----------------
B |--0--7--6--------
F#|-----------7--8--
B |-----------------  x8

VERSE 1:28/1:57

C#|---------------------------------
G#|---------------------------------
E |---------------------------------
B |--7--------7-7-7-----------------
F#|--5--------5-5-5--------8-8-8-7--
B |--0--------0-0-0----------------- x3
              .

VERSE (JOSH) 1:28/1:57

C#|---------------------------------
G#|--3------------3-----------------
E |--2------------2-----------------
B |--0------------0-----------------
F#|--0------------0-----------------
B |--0------------0-----------------  x3

PRE CHORUS 1:57/2:08

C#|-------------------    -------------------
G#|-------------------    -------------------
E |-------------------    -------------------
B |--0-0-0-0-0-0-0-0--    --0-0-0-0-7-7-7-7--
F#|--0-0-0-0-0-0-0-0--    --0-0-0-0-5-5-5-5--
B |--0-0-0-0-0-0-0-0-- x3 --0-0-0-0-0-0-0-0--
     . . . . . . . .        . . . .

CHORUS 2:08/2:29

C#|-----------------
G#|-----------------
E |-----------------
B |--0--7--6--------
F#|-----------7--8--
B |-----------------  x8

FILL 2:29/2:38

C#|-----------------------------
G#|-----------------------------
E |-----------------------------
B |--0---0-0-0-0---7---7-7-7-7--
F#|--0---0-0-0-0---5---5-5-5-5--
B |--0---0-0-0-0---0---0-0-0-0--  (PLAY REALLY GENTLY)

FILL 2:38/2:56


C#|--------------------------------------------------------------
G#|--------------------------------------------------------------
E |--------------------------------------------------------------
B |--8--8--8--8--10-10-10-10--5------8---8--8---10--10-10-10--5--
F#|--8--8--8--8--10-10-10-10--5------8---8--8---10--10-10-10--5--
B |--8--8--8--8--10-10-10-10--5_-----8---8--8---10--10-10-10--5_-
     .  .  .  .   .  .  .  .

FILL 2:56/2:59

C#|---------------------
G#|---------------------
E |---------------------
B |--5-5-5-5-5-5-5-5-5--
F#|--5-5-5-5-5-5-5-5-5--
B |--5-5-5-5-5-5-5-5-5--
     . . . . . . . . .

CHORUS 3:01/3:42

C#|-----------------
G#|-----------------
E |-----------------
B |--0--7--6--------
F#|-----------7--8--
B |-----------------  x8

OUTRO 3:42/3:52

C#|-----------------
G#|-----------------
E |-----------------
B |--0--7--6--2--3--
F#|--0--7--6--2--3--
B |--0--7--6--2--3--  x4

OUTRO 3:52/4:21

C#|-----
G#|-----
E |-----
B |--7--
F#|--5--
B |--0_-





Comments


Popular Stone Sour tabs & chords
Blotter Bass Tabs
30-30/150 Tabs
Cardiff Intro Tabs
Freeze Dry Seal Tabs
Get Inside 1 Tabs
Hell And Consequences 5 Tabs
Imperfect 2 Tabs
Miracles Tabs
Orchids 1 Tabs
Zzyzx Rd 2 Tabs


Song lyrics



↑ Back to top | Tablatures and chords are parodies/interpretations of the original songs. You may use it for private study, scholarship, research or language learning purposes only
© 2014 AZChords.com Contact us | Privacy policy | DMCA | Add/correct tabs | Request tabs | Top 50 tabs