» » »

Stone Sour, Lets Be Honest Tabs (ver.1)

Artists:  A B C D E F G H I J K L M N O P Q R S T U V W X Y Z # 

Lets Be Honest Tabs (ver.1)

Stone Sour Tabs
 Rating:
4/5 (4 votes)
Lets Be Honest lessons Tabs too difficult? Try these video lessons and learn fast
                Stone Sour - Sound Secrecy - Let's Be Honest

Tuning: 6 String Tuned Drop C (C G C F A D)

Vocal: Corey Taylor
Lead Guitar: Jim Root
Rhythm Guitar: Josh Rand
Bass: Shawn Economaki
Drums: Roy Mayorga

Riff 1 (Intro/Verse)
D|-----------------------------------------|
A|-----------------------------------------|
F|-----------------------------------------|
C|-----------------------------------------|
G|--3/5----5/7----5h7p5----3/5-3/5----^----|
C|------00-----00-------00----------0h3p0--|
        ..     ..       ..                  PM

Riff 2 (Verse/Fill)(Guitar 2)
D|----------------------------------|
A|----------------------------------|
F|----------------------------------|
C|--2/4----4/5----4h5p4----2/4-2/4--|
G|----------------------------------|
C|----------------------------------|   

Riff 3 (Chorus)
D|--------------------------------|
A|--------------------------------|
F|--------------------------------|
C|--5~--4~--3~---8~88---6~--------|
G|--5~--4~--3~---6~66---6~--------|
C|--5~--4~--3~----------6~--1/3^--|

Riff 4 (Chorus)
D|--------------------------------------|
A|--------------------------------------|
F|--------------------------------------|
C|--5~--4~--3~--8-88---8-88---1/3~--0~--|
G|--5~--4~--3~--6-66-x-8-88-x-1/3~--0~--|
C|--5~--4~--3~-------x-8-88-x-1/3~--0~--|

Riff 5 (Bridge)
D|--------------------|-------------------------------------|
A|--------------------|-------------------------------------|
F|--14~--12~1111~11~--|--17/19-1919-17\14---12\11-1111-11~--|
C|--------------------|-------------------------------------|
G|--------------------|-------------------------------------|
C|--------------------|-------------------------------------|   

Riff 6 (Bridge/Outro)
D|-------------------------------|
A|-------------------------------|
F|-------------------------------|
C|-------------------------------|
G|-------3---5-------------------|
C|--1/3----5---6---00000-00-000--|   
                   ..... .. ...   PM

NOTE: Listen to the song to structure out each riff, Leave any corrections. Don't forget to Rate!
            
Submit corrections

comments powered by Disqus
↑ Back to top | Stone Sour Tabs for Lets Be Honest. Lyrics for acoustic guitar and electric guitar. Tablatures and chords are parodies/interpretations of the original songs. You may use it for private study, scholarship, research or language learning purposes only