>
 >
Inhale W/ Lyrics

Inhale W/ Lyrics Guitar Tabs

Stone  Sour - Inhale W/ Lyrics chords, tabs, tablatures, lyrics

Guitar lessons | Add/correct | Request | Top 50 tabs Artists:  A B C D E F G H I J K L M N O P Q R S T U V W X Y Z 0-9

Inhale W/ Lyrics Guitar Tabs – Stone Sour

CD, Sheet music, Poster

Do you like Inhale W/ Lyrics? Share with your friends now
Tabs
Drop-D Tuning down 1 ˝ Steps

Intro:
Riff A:
|--------------------------------------|
|-----------------------------------*--|
|--------------------------------------|
|--0-7-6------0-7-6------0-7-6---------|
|--------7-8--------7-8--------7-8--*--|
|--------------------------------------|

Riff B:
|------------------------------|
|---------------------------*--|
|------------------------------|
|--0-7-6—-2-3---0-7-6--2-3-----|
|--0-7-6—-2-3---0-7-6--2-3--*--|
|--0-7-6--2-3---0-7-6--2-3-----|

Verse:
Rhythm Fig. 1:
|-------------------------------------------------------------|
|-------------------------------------------------------------|
|--7-7-7--7-7-7-----------------7-7-7--7-7-7------------------|
|--7-7-7--7-7-7--3-3-3----------7-7-7--7-7-7--3-3-3--5-5-5-5--|
|--5-5-5--5-5-5--------7-7-7-7--5-5-5--5-5-5------------------|
|-------------------------------------------------------------|

|-----------------------------------|
|-----------------------------------|
|--7-7-7--7-7-7----------------x-x--|
|--7-7-7--7-7-7--3-3-3---------x-x--|
|--5-5-5--5-5-5--------7-7-7-7-x-x--|
|-----------------------------------|

1. Come one and all and see the broken man, talking to himself
He sits and waits for something better, he’ll never find it here
The people touch his hair and pinch his cheek; he can’t even feel it. 

Rhythm figure 2:
|---------------------------------------|
|------------------------------------*--|
|---------------------------------------|
|--5-5-5-5-5-5-5-5--5-5-5-5-5-5-5-5-----|
|--5-5-5-5-5-5-5-5--5-5-5-5-5-5-5-5--*--|
|--5-5-5-5-5-5-5-5--5-5-5-5-5-5-5-5-----|
P.M. - - - - - - -  - - - - - - - -

There it goes again, he’s listening to someone
He hears the bitter laughter
All he wants to know is...




Chorus: Riff A  

Why- Does any of it even matter? ( I can’t take it anymore)
You’ve gotta try- the inhale makes the exhale so much better

Verse: Rhythm fig. 1

2. He wipes his hands on anything in reach he never feels clean
He shakes at night because his nerve is gone, every muscle hurts
Come on and all and see what happened…that broken man is me 

Rhythm figure 2:

There it goes again, I can hear it louder
It doesn’t fell good any more
All I want to know is 

Chorus 2: Riff A w/ Rhythm fill 1

Why- Does any of it even matter? (I can’t take it anymore)
You’ve gotta try- the inhale makes the exhale so much better

Rhythm fill 1:
|------------------|
|------------------|
|------------------|
|-0-----------(0)--|
|-0-----------(0)--|
|-0-----------(0)--|


Bridge:                       
|--------------------------------|
|--*--------------------------*--|
|--------------------------------|
|-----8-8-8---10-10-10-10--5-----|
|--*--8-8-8---10-10-10-10--5--*--|
|-----8-8-8---10-10-10-10--5-----|

NOW I KNOW I DISAPPEAR!
I CAN’T FIND MY WAY OUT OF HERE!
EVERYTHING IS FADING ON ME 


|-----------------------|
|-----------------------|
|-----------------------|
|--5-5-5-5-5-5-5-5-5-5--|
|--5-5-5-5-5-5-5-5-5-5--|
|--5-5-5-5-5-5-5-5-5-5--|
P.M. - - - - - - - - -
SOMEONE TELL ME… Someone tell me…

Band tacit:
Someone-tell me

Chorus: Riff A 

Why- Does any of it even matter? (I can’t take it anymore)
You’ve gotta try- the inhale makes the exhale so much better

Outro: 
|-----------------------------|--------------------|
|--------------------------*--|--------------------|
|-----------------------------|--------------------|
|--0-7-6--2-3--0-7-6--2-3-----|--0------------(0)--|
|--0-7-6--2-3--0-7-6--2-3--*--|--0------------(0)--|
|--0-7-6—-2-3--0-7-6--2-3-----|--0------------(0)--|

WHY?! YOU’VE GOTTA TRY
TRY!!!





Comments


Popular Stone Sour tabs & chords
Anna Chords
Blotter 2 Tabs
Blotter 3 Tabs
Blue Study 1 Tabs
Bother 100 Tabs
Choose 1 Tabs
Gone Sovereign Tabs
Idle Hands Offical Tabs
In Hale 1 Tabs
Inhale 1 Tabs


Song lyrics



↑ Back to top | Tablatures and chords are parodies/interpretations of the original songs. You may use it for private study, scholarship, research or language learning purposes only
© 2014 AZChords.com Contact us | Privacy policy | DMCA | Add/correct tabs | Request tabs | Top 50 tabs