» » »

Stone Sour, 666inhale666 Tabs (ver.5)

Artists:  A B C D E F G H I J K L M N O P Q R S T U V W X Y Z # 

666inhale666 Tabs (ver.5)

Stone Sour Tabs
 Rating:
4/5 (4 votes)
666inhale666 lessons Tabs too difficult? Try these video lessons and learn fast
                (Complete)

Tuning: Drop D (D,A,D,G,B,E)

Intro:
W/DISTORTION
E|------------
B|------------
G|------------
D|-0-7-6------
A|-------7-8--
D|------------

E|------------
B|------------
G|------------
D|-0-7-6------
A|-------7-8--
D|------------

E|------------
B|------------
G|------------
D|-0-7-6------
A|-------7-8--
D|------------

E|------------
B|------------
G|------------
D|-0-7-6------
A|-------7-8--
D|------------

E|------------
B|------------
G|------------
D|-0-7-6------
A|-------7-8--
D|------------

E|------------
B|------------
G|------------
D|-0-7-6------
A|-------7-8--
D|------------

Bridge:
W/DISTORTION
E|------------
B|------------
G|------------
D|-0-7-6-2-3--
A|-0-7-6-2-3--
D|-0-7-6-2-3--

E|------------
B|------------
G|------------
D|-0-7-6-2-3--
A|-0-7-6-2-3--
D|-0-7-6-2-3--

E|------------
B|------------
G|------------
D|-0-7-6-2-3--
A|-0-7-6-2-3--
D|-0-7-6-2-3--

Verse:
W/DISTORTION
E|------------------------------------
B|------------------------------------
G|-7----------7-7-7-------------------
D|-7----------7-7-7----------8-8-8-7--
A|-5----------5-5-5----------8-8-8-7--
D|-0----------0-0-0----------8-8-8-7--

E|------------------------------------
B|------------------------------------
G|-7----------7-7-7-------------------
D|-7----------7-7-7----------8-8-8-7--
A|-5----------5-5-5----------8-8-8-7--
D|-0----------0-0-0----------8-8-8-7--

E|------------------------------------
B|------------------------------------
G|-7----------7-7-7-------------------
D|-7----------7-7-7----------8-8-8-7--
A|-5----------5-5-5----------8-8-8-7--
D|-0----------0-0-0----------8-8-8-7--

E|------------------------------------
B|------------------------------------
G|-7----------7-7-7-------------------
D|-7----------7-7-7----------8-8-8-7--
A|-5----------5-5-5----------8-8-8-7--
D|-0----------0-0-0----------8-8-8-7--

Pre Chorus:
W/DISTORTION
E|-----------------------------------------
B|-----------------------------------------
G|-----------------------------------------
D|-5-5-5-5-5-5-5-5-5-5-5-5-5-5-5-5-5-5-5-5-
A|-5-5-5-5-5-5-5-5-5-5-5-5-5-5-5-5-5-5-5-5-
D|-5-5-5-5-5-5-5-5-5-5-5-5-5-5-5-5-5-5-5-5-
PM.........................................

Chorus:
W/DISTORTION
E|------------
B|------------
G|------------
D|-0-7-6------
A|-------7-8--
D|------------

E|------------
B|------------
G|------------
D|-0-7-6------
A|-------7-8--
D|------------

E|------------
B|------------
G|------------
D|-0-7-6------
A|-------7-8--
D|------------

E|------------
B|------------
G|------------
D|-0-7-6------
A|-------7-8--
D|------------

E|------------
B|------------
G|------------
D|-0-7-6------
A|-------7-8--
D|------------

E|------------
B|------------
G|------------
D|-0-7-6------
A|-------7-8--
D|------------

E|------------
B|------------
G|------------
D|-0-7-6------
A|-------7-8--
D|------------

Interlude:
W/DISTORTION
E|-------------------------
B|-------------------------
G|-7----------7-7-7--------
D|-7----------7-7-7---8-7--
A|-5----------5-5-5---8-7--
D|-0----------0-0-0---8-7--

Break Down:
W/DISTORTION
E|-----------------------------------------------------
B|-----------------------------------------------------
G|-3-3-3-3---5-5-5-5--------------3-3-3-3---5-5-5-5----
D|-3-3-3-3---5-5-5-5--5-----------3-3-3-3---5-5-5-5--5-
A|-1-1-1-1---3-3-3-3--5-----------1-1-1-1---3-3-3-3--5-
D|--------------------5------------------------------5-

E|-----------------------------------------------------
B|-----------------------------------------------------
G|-3-3-3-3---5-5-5-5--------------3-3-3-3---5-5-5-5----
D|-3-3-3-3---5-5-5-5--5-----------3-3-3-3---5-5-5-5--5-
A|-1-1-1-1---3-3-3-3--5-----------1-1-1-1---3-3-3-3--5-
D|--------------------5------------------------------5-

Pre Chorus:
W/DISTORTION
E|------------------
B|------------------
G|------------------
D|-5-5-5-5-5-5-5-5-5
A|-5-5-5-5-5-5-5-5-5
D|-5-5-5-5-5-5-5-5-5
PM..................

Outro
W/DISTORTION
E|------------------------------------------------------------
B|------------------------------------------------------------
G|----------------------------------------------------------7-
D|-0-7-6-2-3-----0-7-6-2-3-----0-7-6-2-3-----0-7-6-2-3------7-
A|-0-7-6-2-3-----0-7-6-2-3-----0-7-6-2-3-----0-7-6-2-3------5-
D|-0-7-6-2-3-----0-7-6-2-3-----0-7-6-2-3-----0-7-6-2-3------0-
            
Submit corrections

comments powered by Disqus
↑ Back to top | Stone Sour Tabs for 666inhale666. Lyrics for acoustic guitar and electric guitar. Tablatures and chords are parodies/interpretations of the original songs. You may use it for private study, scholarship, research or language learning purposes only