» » »

666inhale666 Tabs (ver.6)

Artists:  A B C D E F G H I J K L M N O P Q R S T U V W X Y Z # 

666inhale666 Tabs (ver.6)

Stone Sour
Rating:
0/5 (0 votes)

Hard to play? Try these video lessons and learn fast.
                tuning: B F# B E Ab C#

PM= palm mute
#:let ring
*:vibrato

riff 1:   x6
C#|-------------------------|
Ab|-------------------------|
E |-------------------------|	
B |-0---7---6---------------|
F#|-------------7-----8*----|
B |-------------------------|

riff 2:  x4
C#|-------------------------|
Ab|-------------------------|
E |-------------------------|	
B |-------------------------|
F#|-0---7---6---2-----3-----|
B |-0---7---6---2-----3-----|

riff 3:
C#|---------------------------------|
Ab|---------------------------------|
E |---------------------------------|	
B |-0#--0-0-0#--3-3-3-1-------------|
F#|-0#--0-0-0#--3-3-3-1-------------|
B |-0#--0-0-0#--3-3-3-1-------------|
   

riff 4: x2
C#|---------------------------------|
Ab|---------------------------------|
E |---------------------------------|	
B |-0-0-0#--0-0-0#--3-3-3-1---------|
F#|-0-0-0#--0-0-0#--3-3-3-1---------|
B |-0-0-0#--0-0-0#--3-3-3-1---------|
   

riff 4:  x32
C#|-----------------------------------------|
Ab|-----------------------------------------|
E |-----------------------------------------|	
B |-----------------------------------------|
F#|-5---5---5---5---5---5---5---5---5---5---|
B |-5---5---5---5---5---5---5---5---5---5---|
   |___________________PM__________________|

riff 1:   x8
C#|-------------------------|
Ab|-------------------------|
E |-------------------------|	
B |-0---7---6---------------|
F#|-------------7-----8*----|
B |-------------------------|

riff 3:
C#|---------------------------------|
Ab|---------------------------------|
E |---------------------------------|	
B |-0#--0-0-0#--3-3-3-1#------------|
F#|-0#--0-0-0#--3-3-3-1#------------|
B |-0#--0-0-0#--3-3-3-1#------------|

riff 4: x2
C#|---------------------------------|
Ab|---------------------------------|
E |---------------------------------|	
B |-0-0-0#--0-0-0#--3-3-3-1#--------|
F#|-0-0-0#--0-0-0#--3-3-3-1#--------|
B |-0-0-0#--0-0-0#--3-3-3-1#--------|


riff 4:  x32
C#|-----------------------------------------|
Ab|-----------------------------------------|
E |-----------------------------------------|	
B |-----------------------------------------|
F#|-5---5---5---5---5---5---5---5---5---5---|
B |-5---5---5---5---5---5---5---5---5---5---|
   |___________________PM__________________|


riff 1:   x8
C#|-------------------------|
Ab|-------------------------|
E |-------------------------|	
B |-0---7---6---------------|
F#|-------------7-----8*#---|
B |-------------------------|


riff 4: x4
C#|---------------------------------|
Ab|---------------------------------|
E |---------------------------------|	
B |-9-9-9-11-11-11-5#---------------|
F#|-9-9-9-11-11-11-5#---------------|
B |-9-9-9-11-11-11-5#---------------|

   riff 4:  x9
C#|-----------------------------------------|
Ab|-----------------------------------------|
E |-----------------------------------------|	
B |-----------------------------------------|
F#|-5---5---5---5---5---5---5---5---5---5---|
B |-5---5---5---5---5---5---5---5---5---5---|
   |___________________PM__________________|

riff 1:   x16
C#|-------------------------|
Ab|-------------------------|
E |-------------------------|	
B |-0---7---6---------------|
F#|-------------7-----8*----|
B |-------------------------|


riff 2:  x4
C#|-------------------------|
Ab|-------------------------|
E |-------------------------|	
B |-------------------------|
F#|-0---7---6---2-----3-----|
B |-0---7---6---2-----3-----|

C#|------|
Ab|------|
E |------|	
B |-2#---|
F#|-2#---|
B |-2#---|
            
Hard to play? Try these video lessons and learn fast. | Correct




comments powered by Disqus
↑ Back to top | Tablatures and chords are parodies/interpretations of the original songs. You may use it for private study, scholarship, research or language learning purposes only