» » »

Stone Sour, Imperfect Tabs (ver.1)

Artists:  A B C D E F G H I J K L M N O P Q R S T U V W X Y Z # 

Imperfect Tabs (ver.1)

Stone Sour Tabs
 Rating:
4/5 (4 votes)
Imperfect lessons Tabs too difficult? Try these video lessons and learn fast
1
                -------------------------------------------------------------------------------
                             Imperfect - Stone Sour
-------------------------------------------------------------------------------

Tuning:Half-Step Down

This is what I heard. For now it's just intro and verse but if i got more time again 
finish it ;)

Intro
e|-0-0-0-0-0-0-0-0-0-0---------------------0-2-3-0-0-0-0---------------------|
B|-2-2-2-2-2-2-0-3-3-3---------------------2-2-2-3-0-3-0---------------------|
G|-2-2-2-2-2-2-2-2-2-2-0-0-0-0---0-0-0-0-0-2-0-0-2-2-2-2-0-0-0-0---0-0-0-0-0-|
D|-0-0-0-0-0-0-0-0-0-0-2-2-2-2---2-2-2-2-2-0-0-0-0-0-0-0-2-2-2-2---2-2-2-2-2-|
A|-3-3-3-3-3-3-3-3-3-3-3-3-3-3---3-3-3-3-3-3-3-3-3-3-3-3-3-3-3-3---3-3-3-3-2-|
E|-3-3-3-3-3-3-3-3-3-3-2-2-0-2---2-0-2-3-3-3-3-3-3-3-3-3-2-2-0-2---2-0-2-3-3-|

Verse
e|-3-3-3-2-0-----0-2-3-----3-2-0-----0-2-3-3--------3-2-0--------0-0-0-0-0-0-|
B|-2-2-2-2-2-----2-2-2-----2-2-2-----2-2-2-2--------2-2-2--------0-2-3-3-3-3-|
G|-0-0-0-0-2-----2-0-0-----0-0-2-----2-0-0-0--0-0---0-0-2--0-0---2-2-2-2-2-2-|
D|-0-0-0-0-0-----0-0-0-----0-0-0-----0-0-0-0--0-0---0-0-0--0-0---2-0-0-0-0-0-|
A|-3-3-3-3-0-----3-3-3-----3-3-0-----3-3-3-3--3-3---3-3-0--3-3---3-3-3-3-3-3-|
E|-3-3-3-3-0-----3-3-3-----3-3-0-----3-3-3-3--3-3---3-3-0--3-3---3-3-3-3-3-3-|

e|---------------------------------------------------------------------------|
B|---------------------------------------------------------------------------|
G|-0-0-0-0---0-0-0-0-0-------------------------------------------------------|
D|-2-2-2-2---2-2-2-2-2-------------------------------------------------------|
A|-3-3-3-3---3-3-3-3-3-------------------------------------------------------|
E|-2-2-0-2---2-0-2-3-3-------------------------------------------------------|

Chorus

Almost the same like the intro so just hear the little differences out!


************************************

| /   slide up
| \   slide down
| h   hammer-on
| p   pull-off
| ~   vibrato
| +   harmonic
| x   Mute note
| b   Bend
| pb  Pre-bend
| br  Bend release
| pbr Pre-bend release
| brb Bend release bend

************************************
            
Submit corrections

comments powered by Disqus
↑ Back to top | Stone Sour Tabs for Imperfect. Lyrics for acoustic guitar and electric guitar. 1 Tablatures and chords are parodies/interpretations of the original songs. You may use it for private study, scholarship, research or language learning purposes only