» » »

Hesitate Bass tabs (ver.3)

Artists:  A B C D E F G H I J K L M N O P Q R S T U V W X Y Z # 

Hesitate Bass tabs (ver.3)

Stone Sour
Rating:
0/5 (0 votes)

Tabs too difficult? Try these video lessons and learn fast.
                --------------------------------------------------------------------------
                             HESITATE - Stone Sour
--------------------------------------------------------------------------


Tuning: Standard 5 String BEADG

Bass doesn't come in until right before first chorus (:48)

(Quick Buildup, just listen you'll hear it)
G|----------|
D|----------|
A|--666666--|
E|----------|
B|----------|

CHORUS  
G|---------------------------------------------------|
D|---------------------------------------------------|
A|---------------------------------------------------|
E|--6---6---6----6-5-3---3---3---3-6-----------------|
B|-----------------------------------4---4---4---4---|

G|--------------------|
D|--------------------|
A|-----------6-6--6~--|
E|-6---6---6----------|
B|--------------------|

G|---------------------------------------------------|
D|---------------------------------------------------|
A|---------------------------------------------------|
E|--6---6---6----6-5-3---3---3---3-6-----------------|
B|-----------------------------------4---4---4---4---|

G|--------------------|
D|--------------------|
A|-----------6-6~\----|
E|-6---6---6----------|
B|--------------------|

REST UNTIL 1:35

VERSE
G|-------------------------------------------|
D|-------------------------------------------|
A|-----------------1~--------------------5~--|
E|-----1~--3~-----------1~------1~--3~-------|
B|-4~----------4~-----------4~---------------|

(Quick Buildup, just listen you'll hear it)
G|----------|
D|----------|
A|--666666--|
E|----------|
B|----------|

CHORUS
G|---------------------------------------------------------|
D|---------------------------------------------------------|
A|---------------------------------------------------------|
E|-6666666666666666-5-3333333333333333-6-------------------|
B|---------------------------------------4444444444444444--|

G|-------------------|
D|-------------------|
A|----------6-6--6~--|
E|-66666666----------|
B|-------------------|

G|---------------------------------------------------------|
D|---------------------------------------------------------|
A|---------------------------------------------------------|
E|-6666666666666666-5-3333333333333333-6-------------------|
B|---------------------------------------4444444444444444--|

G|-------------------|
D|-------------------|
A|----------6-6~\----|
E|-66666666----------|
B|-------------------|

SOLO
G|----------------------------------------------|
D|----------------------------------------------|
A|----------------------------------------------|
E|-----1~--3~------1~--3~------1~--3~-11111111--|
B|-4~----------4~----------4~-------------------|

BRIDGE
G|---------------------------------------------------------------|
D|---------------------------------------------------------------|
A|---------------------------------------------------------------|
E|-------1111--33333333-------1111-33333333-------1111-33333333/-|
B|-4444------------------4444----------------4444----------------|

G|------------------|
D|------------------|
A|------------------|
E|-1313131313131313-|(13s not 1 and 3)
B|------------------|

CHORUS 
G|----------------------------------------------------------|
D|----------------------------------------------------------|
A|----------------------------------------------------------|
E|-666666666666666655553333333333333333666------------------|
B|----------------------------------------4444444444444444--|

G|-------------------|
D|-------------------|
A|----------6-6--6~--|
E|-66666666----------|
B|-------------------|

G|----------------------------------------------------------|
D|----------------------------------------------------------|
A|----------------------------------------------------------|
E|-666666666666666655553333333333333333666------------------|
B|----------------------------------------4444444444444444--|

G|-------------------|
D|-------------------|
A|----------6-6~\----|
E|-66666666----------|
B|-------------------|

G|----------------------------------------------------------|
D|----------------------------------------------------------|
A|----------------------------------------------------------|
E|-666666666666666655553333333333333333666------------------|
B|----------------------------------------4444444444444444--|

G|-------------------|
D|-------------------|
A|----------6-6~\----|
E|-66666666----------|
B|-------------------|

G|----------------------------------------------------------|
D|----------------------------------------------------------|
A|----------------------------------------------------------|
E|-666666666666666655553333333333333333666------------------|
B|----------------------------------------4444444444444444--|

G|-------------------|
D|-------------------|
A|----------6-6--6~--|
E|-66666666----------|
B|-------------------|
            
Tabs too difficult? Try these video lessons and learn fast.




comments powered by Disqus
↑ Back to top | Tablatures and chords are parodies/interpretations of the original songs. You may use it for private study, scholarship, research or language learning purposes only