» » »

Hesitate Tabs (ver.8)

Artists:  A B C D E F G H I J K L M N O P Q R S T U V W X Y Z # 

Hesitate Tabs (ver.8)

Stone Sour
Rating:
0/5 (0 votes)

Hard to play? Try these video lessons and learn fast.
                By; StoneSour
As heard on; Audio Secrecy
Tuning; Standard E

I tabbed out this song by ear at about 4 am on monday jan 10th, I wrote it down at 
about 4 pm this same day,
I have no internet so I didn't have time to put in how many times you repeat the 
verse or chorus before
leaving for the library, but if you own the album it shouldn't be too hard to figure out.


Intro/Verse
           X's 3
E|-----------------------||-------------|
B|-----------------------||-------------|
G|-3------5------6-------||-2--3---22-3-|
D|-----------------------||-0--0---00-0-|
A|-----------------------||-------------|
E|-----------------------||-------------|

Verse-Lead
      X's 3
E|--------------||-----------|
B|--------------||-----------|
G|-3-----5---6--||-2-2-2--3--|
D|-1-----3---4--||-0-0-0--1--|
A|--------------||-0-0-0--1--|
E|--------------||-----------|

Verse-Rhythm
E|--------------------------------------------|
B|-11---11---11---11---10---10-11-------11----|
G|---10---10---10---10---10----------10-------|
D|--------------------------------0-----------|
A|--------------------------------------------|
E|--------------------------------------------|

Chorus 
E|----------------------------------------|
B|-8-7-----5--8-7----10-3-----8-7---3-3---|
G|-8-7-----5--8-7----10-3-----8-7---3-3---|
D|-6-5-----3--6-5----8--1-----6-5---1-1---|
A|-6-5-----3--6-5----8--1-----6-5---1-1---|
E|----------------------------------------|

Verse
Chorus

Solo
E|-------------------------------------------------------------|
B|-16-15-13-------------------16-15-13-----------6-8-6---------|
G|----------12--8-7-8-10-8-7-----------12--8-7-8-------88-7-8--|
D|-------------------------------------------------------------|
A|-------------------------------------------------------------|
E|-------------------------------------------------------------|

E|----------------------------6h8-6---5--|
B|-16-15-13------------------------------|
G|----------12--8-7-8-10-8-7-------------|
D|---------------------------------------|
A|---------------------------------------|
E|---------------------------------------|

Bridge
E|------------|
B|------------|
G|-3---5---6--|
D|-1---3---4--|
A|------------|
E|------------|

Chorus

Outro Chord
E|---------|
B|----3----|
G|----3----|
D|----1----|
A|----1----|
E|---------|

Check out some of my other tabs on this site, and there's more to come.
            
Hard to play? Try these video lessons and learn fast. | Correct




comments powered by Disqus
↑ Back to top | Tablatures and chords are parodies/interpretations of the original songs. You may use it for private study, scholarship, research or language learning purposes only