» » »

Hesitate Tabs (ver.7)

Artists:  A B C D E F G H I J K L M N O P Q R S T U V W X Y Z # 

Hesitate Tabs (ver.7)

Stone Sour
Rating:
0/5 (0 votes)

Hard to play? Try these video lessons and learn fast.
                First tab for me.  I believe Cory is tuned down a 1/2 step but I tabbed it out for 
standard tuning.

Intro/Verse
           X's 3
E|-----------------------||----------------0-----|
B|-----------------------||-------------- 3------|
G|-3------5--/7----------||---2--2-2--3-2--------|
D|-----------------------||----------------------|
A|-----------------------||----------------------|
E|-----------------------||----------------------|

Verse-Lead
      X's 3
E|--------------||-----------|
B|--------------||-----------|
G|-4-----6---8--||-2-2-2--3--|
D|-2-----4---6--||-0-0-0--1--|
A|--------------||-0-0-0--1--|
E|--------------||-----------|

Verse-Rhythm
E|--------------------------------------------|
B|-11---11---11---11---10---10-11-------11----|
G|---10---10---10---10---10----------10-------|
D|--------------------------------0-----------|
A|--------------------------------------------|
E|--------------------------------------------|

Chorus
E|----------------------------------------------------------|
B|----------------------------------------------------------|
G|----------------------------------------------------------|
D|--8-8-8-8-8-8-8-8-8-8-8-8--8--8--5-5-5-5-5-5-5-5-5-5-5-5--|
A|--8-8-8-8-8-8-8-8-8-8-8-8--8--8--5-5-5-5-5-5-5-5-5-5-5-5--|
E|--6-6-6-6-6-6-6-6-6-6-6-6--6--5--3-3-3-3-3-3-3-3-3-3-3-3--|

E|----------------------------------------------| -second time-
B|----------------------------------------------| -------------
G|---8--8-8-8-8-8-8-8-8-8-8-8-8---------8-8---8-| -------8-8---
D|-8-8--8-8-8-8-8-8-8-8-8-8-8-8--8-8-8--8-8---8-| 8-8-8--8-8---
A|-8-6--6-6-6-6-6-6-6-6-6-6-6-6--8-8-8--6-6---6-| 8-8-8--6-6---
E|-6-----------------------------6-6-6----------| 6-6-6--------


Solo
E|-/11-10------------------------/11-10---------------------------------|
B|-------13-9v--------------------------13-9v---------6-8-6--6h8p6------|
G|--------------8-7-8-10-8-7------------------8-7-8---------------8vv---|
D|----------------------------------------------------------------------|
A|----------------------------------------------------------------------|
E|----------------------------------------------------------------------|

E|-/11-10-------------------------------------|
B|-------13-9v--------------------------------|
G|--------------8-7-8-10-8-7------------------|
D|-----------------------------6h8v--6/5vv----|
A|--------------------------------------------|
E|--------------------------------------------|

Rhythm during solo
E|-------------|
B|-------------|
G|-------------|
D|-2--4--6-----|
A|-2--4--6-----|
E|-0--2--4-----|
            
Hard to play? Try these video lessons and learn fast. | Correct




comments powered by Disqus
↑ Back to top | Tablatures and chords are parodies/interpretations of the original songs. You may use it for private study, scholarship, research or language learning purposes only