» » »

Hesitate Tabs (ver.6)

Artists:  A B C D E F G H I J K L M N O P Q R S T U V W X Y Z # 

Hesitate Tabs (ver.6)

Stone Sour
Rating:
0/5 (0 votes)
Tabs too difficult? Try these video lessons and learn fast.
                ----------------------------------------------------------------------------
----------------------------------------------------------------------------

Tuning: Eb (one half step down on all strings)

Listen to the song for the rhythm.

You were my fire, so I burned...

e|-------------------|
B|--0-----0---0--0---|
G|--4-----6---8---4--|  x3
D|-------------------|
A|-------------------|
E|-------------------|

e|----------------------------------0--------------------------------------|
B|--0-----0--0--0---0---0-0---0----0---------------------------------------|
G|--4-----6--8----3---3-----3-----3----------------------------------------|
D|-------------------------------4-----------------------------------------|
A|-------------------------------------------------------------------------|
E|-------------------------------------------------------------------------|


Why give me hope, then give me up...

e|-----------------------------------------------------------------|
B|-----------------------------------------------------------------|
G|---------------------------------------------4-------------------|
D|-------2-----2---------4-----6---6-----2---4-------4---4---------|
A|-----2-----2-----2---4-----6---6-----2---2-------4---------------|
E|---0-----0-----0---2-----4---------0-----------2-----2-----------|

e|--------------------------------------------------------------------------|
B|--------------------------------------------------------------------------|
G|--------------------------------------------------------------------------|
D|-------2-----2---------4-----6---6---1----1----1-----2----1---1---1----2--|
A|-----2-----2-----2---4-----6-------1----1----1-----2----1---1---1----2----|
E|---0-----0-----0---2-----4-----4-----------------0-----------------0------|

Chorus: Cuz I see you, but I can't feel you anymore - so go away

e|---------------7-6--6-4-4-4-4-4-4-4-4--7-7-7-7----------7--7--------------|
B|---------------7-6--6-4-4-4-4-4-4-4-4--7-7-7-7----------9--9--------------|
G|---------------7-6--6-4-4-4-4-4-4-4-4--9-9-9-9----------9--9--------------|
D|-9-9-9-9-9-9---9-8--8-6-6-6-6-6-6-6-6--9-9-9-9-9-9-9-9--7--7--------------|
A|-9-9-9-9-9-9---9-8--8-6-6-6-6-6-6-6-6--7-7-7-7-9-9-9-9--7--7--------------|
E|-7-7-7-7-7-7---7-6--6-4-4-4-4-4-4-4-4--7-7-7-7-7-7-7-7--7--7--------------|


x2

And that's all she wrote for today.. These are the main parts, minus the solo. They just 
keep coming back, listen to the track for this.
            
Tabs too difficult? Try these video lessons and learn fast.


comments powered by Disqus
↑ Back to top | Tablatures and chords are parodies/interpretations of the original songs. You may use it for private study, scholarship, research or language learning purposes only