>
 >
Hell And Consequences 2

Hell And Consequences 2 Guitar Tabs

Stone  Sour - Hell And Consequences 2 chords, tabs, tablatures, lyrics

Guitar lessons | Add/correct | Request | Top 50 tabs Artists:  A B C D E F G H I J K L M N O P Q R S T U V W X Y Z 0-9

Hell And Consequences 2 Guitar Tabs – Stone Sour

CD, Sheet music, Poster

Do you like Hell And Consequences 2? Share with your friends now
Bass TabsTabsTabs v2Tabs v3Tabs v4Tabs v5Tabs v6
--------------------------------------------------------------------------------
                        Stone Sour - Hell & Consequences
--------------------------------------------------------------------------------


i used this vids to tab the song
cool stuff ;>

u have to figure out the order yourself.
btw there is a lot freedom for improvising
Jim Root also combines the parts quite randomly 
and does some fast licks in between.
i left out these fast licks and the soli for the 
reason im playing the guitar 4 months now ^^ but 
the tab is 99% accurate
...so do what(ever) u wanna do with it :>


FIG. 1A
 Db|--------------------------------------------|
 Ab|--------------------------------------------|
 E2|--------------------------------------------|
 B2|--------------------------------------------|
 Gb|--------------------------------------------|
 B1|--5-3-0-6-3-0-5-3-5-3-0-6-3-0-5-3-----------|
 PM
FIG. 1B
 db|--------------------------------------------------------|
 Ab|--------------------------------------------------------|
 E2|--------------------------------------------------------|
 B2|--------------------------------------------------------|
 Gb|--------------------------------------------------------|
 B1|--17-15-0-18-15-0-17-15-17-15-0-18-15-0-17-15-----------|
 PM
FIG. 2A
 Db|-------------------------------------------|
 Ab|-------------------------------------------|
 E2|-------------------------------------------|
 B2|-------------------------------------------|
 Gb|-------------------------------------------|
 B1|--00000----00000h1-00000----00000h1--------|
 PM   ....     ....    ....     ....
FIG. 2B
 Db|-------------------------------------------|
 Ab|-------------------------------------------|
 E2|-------------------------------------------|
 B2|---------------7/8--------------7/8--------|
 Gb|--55555----55555/6-55555----55555/6--------|
 B1|-------------------------------------------|
 PM   ....     ....    ....     ....
FIG. 3A
 Db|-------------------------------------------|
 Ab|-------------------------------------------|
 E2|-------------------------------------------|
 B2|-------------------------------------------|
 Gb|------5-----------------5------------------|
 B1|--0-3---3-0-6-3-0-3-0-3---3-0-5-3----------|
 PM
FIG. 3B
 Db|---------------------------------------------------|
 Ab|---------------------------------------------------|
 E2|---------------------------------------------------|
 B2|---------------------------------------------------|
 Gb|-------17----------------------17------------------|
 B1|--0-15----15-0-18-15-0-15-0-15----15-0-17\15-------|
 PM
FIG. 4A							FIG. 5A
 Db|---------|-------|---------|-------|---------|-------|-------------|-------|
 Ab|---------|-------|---------|-------|---------|-------|-------------|-------|
 E2|------5--|-(5)---|------8--|-(8)---|------3--|-(3)---|-------------|-------|
 B2|-3----3--|-(3)---|-6----6--|-(6)---|-1----1--|-(1)---|-3-----5-x-5-|-(5)---|
 Gb|-3--3-3--|-(3)---|-6--6-6--|-(6)---|-1--1-1--|-(1)---|-3--3--3-x-3-|-(3)---|
 B1|-3--3-3--|-(3)---|-6--6-6--|-(6)---|-1--1-1--|-(1)---|-3--3--------|-------|
 PM     .                 .                 .                 .    .
FIG. 4B
 Db|-----------------|-----------------|-----------------|-----------------|
 Ab|-----------------|-----------------|-----------------|-----------------|
 E2|---------5-------|---------5-------|---------8-------|---------8-------|
 B2|-----3-----3---3-|-----3-----3---3-|-----6-----6---6-|-----6-----6---6-|
 Gb|---3---3-----3---|---3---3-----3---|---6---6-----6---|---6---6-----6---|
 B1|-3---------------|-3---------------|-6---------------|-6---------------|
 PM  .......   .....   .......   .....   .......   .....   .......   .....
				      FIG. 5B
 Db|-----------------|-----------------|----------|----------|
 Ab|-----------------|-----------------|----------|----------|
 E2|---------3-------|---------3-------|-10\5-/9--|--9~------|
 B2|-----1-----1---1-|-----1-----1---1-|----------|----------|
 Gb|---1---1-----1---|---1---1-----1---|-8-\3-/7--|----------|
 B1|-1---------------|-1---------------|----------|----------|
 PM  .......   .....   .......   .....
FIG. 4C
 Db|-----------------|-----------------|-----------------|-----------------|
 Ab|-----------------|-----------------|-----------------|-----------------|
 E2|---------5-------|---------5-------|---------8/10\7--|---------8/10\7--|
 B2|-----3-----3---3-|-----3-----3---3-|-----6-----------|-----6-----------|
 Gb|---3---3-----3---|---3---3-----3---|---6---6---------|---6---6---------|
 B1|-3---------------|-3---------------|-6---------------|-6---------------|
 PM  .......   .....   .......   .....   .......           .......
				      FIG. 5C
 Db|-----------------|-----------------|----------|----------|
 Ab|-----------------|-----------------|----------|----------|
 E2|---------3-------|---------3-------|-10/12\9--|--9~------|
 B2|-----1-----1---1-|-----1-----1---1-|----------|----------|
 Gb|---1---1-----1---|---1---1-----1---|-8-/10\7--|----------|
 B1|-1---------------|-1---------------|----------|----------|
 PM  .......   .....   .......   .....
FIG. 4D
 Db|----------|-------|----------|-------|----------|-------|
 Ab|----------|-------|----------|-------|----------|-------|
 E2|-5/7---5--|-(5)---|-5/7---5--|-(8)---|-5/7---5--|-(3)---|
 B2|----------|-------|----------|-------|----------|-------|
 Gb|-3/5---3--|-(3)---|-5/7---5--|-(6)---|-5/7---5--|-(1)---|
 B1|----------|-------|----------|-------|----------|-------|
 PM
FIG. 6
 Db|---------------------------------------------------------------|
 Ab|---------------------------------------------------------------|
 E2|---------------------------------------------------------------|
 B2|---------------------------------------------------------------|
 Gb|---------------------------------------------------------------|
 B1|--3h5-3h5-3p0-0-0-0-6-0-5-0-0-3h5-3h5-3p0-0-0-0-6-0-5-0-0------|
 PM               .....   .   ...             .....   .   ...
FIG. 7
 Db|-----------------------------------------------------------------------------|
 Ab|-----------------------------------------------------------------------------|
 E2|-----------------------------------------------------------------------------|
 B2|-----------------------------------------------------------------------------|
 Gb|-----------------------------------------------------------------------------|
 B1|--3p0-0-0-1p0-0-0-0-3-0-3-0-3-1-3-3p0-0-0-1p0-0-0-0-3-0-3-0-6-3-5------------|
 PM       ...     .....   .   .           ...     .....   .   .





Comments


Popular Stone Sour tabs & chords
Come Whatever May Bass Tabs
Come Whatever May 2 Bass Tabs
Sillyworld Bass Tabs
Through Glass Chords
Bother 3 Tabs
Get Inside Offical Tab Tabs
Hesitate 2 Tabs
Inhale W/ Lyrics Tabs
Orchids 4 Tabs
Through Glass Tabs


Song lyrics



↑ Back to top | Tablatures and chords are parodies/interpretations of the original songs. You may use it for private study, scholarship, research or language learning purposes only
© 2014 AZChords.com Contact us | Privacy policy | DMCA | Add/correct tabs | Request tabs | Top 50 tabs