» » »

Stone Sour, Hell And Consequences Tabs (ver.2)

Artists:  A B C D E F G H I J K L M N O P Q R S T U V W X Y Z # 

Hell And Consequences Tabs (ver.2)

Stone Sour Tabs
Rating:
0/5 (0 votes)
Hell And Consequences lessons Tabs too difficult? Try these video lessons and learn fast
                Atrist: Stone Sour
Tunning: Drop B (B F# B E G# C#)

This song is awsome, Solo was hard to tab by ear
so give me some credit i got 90% of it right though
 I hope everyone gets a chance to listen to it when this album comes out. 
might wanna check it out as for everything else enjoy!

Tab Legend:
. - Palm Mute

INTRO
(when you repeat this riff dont include
the beginning 3 chord just start from 
the 5)
C#|----------------------|
G#|----------------------|
E |----------------------|
B |----------------------|
F#|-3--------------------|
B |-3--5-3-3-6-3-3-5-3-5-| X8

(Guitar 2 plays this after
4 times of the above riff)
|-------------------|
|-------------------|
|-------------------|
|-5-3-3-6-3-3-5-3-5-|
|-------------------|
|-------------------| 
  . . . . . . . . .

PREVERSE/PRECHORUS
|------------|
|------------|
|------------|
|---------1--|
|-000-000-1--|
|-000-000-1--| X4
  ... ...

VERSE
|-------------------|
|-------------------|
|-------------------|
|-------------------|
|-------------------|
|-5-3-3-6-3-3-5-3-5-| X4

|-------------------|
|-------------------|
|-------------------|
|-------------------|
|-------------------|
|-5-3-3-6-3-3-5-3-5-| X4
  . . . . . . . . .

Play PREVERSE/PRECHORUS X4

CHORUS
Guitar 1
|-------------------------|
|-------------------------|
|-------------------------|
|-3-3---6-6---10-8---3-3--|
|-3-3---6-6---10-8---3-3--|
|-3-3---6-6---10-8---3-3--| X2

Guitar 2
|-8-8-8-8-8-8-8-8-8-8-8-8-|
|--8-8-8-8-8-8-8-8-8-8-8-8|
|-------------------------|
|-------------------------|
|-------------------------|
|-------------------------| X2

INTERLUDE
|----------------------------|
|----------------------------|
|----------------------------|
|----------------------------|
|-3-5-3-5-3-0-0-0--6-6-3-5-6-|
|-3-5-3-5-3-0-0-0--6-6-3-5-6-| X2
            . . . 

VERSE 2
|-------------------|
|-------------------|
|-------------------|
|-------------------|
|-------------------|
|-5-3-3-6-3-3-5-3-5-| X2

|-------------------|
|-------------------|
|-------------------|
|-------------------|
|-------------------|
|-5-3-3-6-3-3-5-3-5-| X2
  . . . . . . . . .

Play PREVERSE X4

Play CHORUS X2

BRIDGE
|-------------------|
|-------------------|
|-------------------|
|-------------------|
|-------------------|
|-5-3-3-6-3-3-5-3-5-| X4

SOLO

Rythem guitar plays this
for the whole solo
|-------------------|
|-------------------|
|-------------------|
|-------------------|
|-------------------|
|-5-3-3-6-3-3-5-3-5-| X16

(Use whammy bar alot on this solo, listen to song for
parts to use it on)
|------------------------------------------------------|
|---------20221513-------------------------------------|
|-17201719--------1411/14191720192019-17-15-1415141214-|
|------------------------------------------------------|
|------------------------------------------------------|
|------------------------------------------------------|

(This ending part is definatly wrong, very hard to tell
becuase of the speed)
|------------------------------20------------17---------------|
|-----------19-----------15--22--221915141516--1615-----------|
|-1415171922---1514121415--------------------------131066/7\6-|
|-------------------------------------------------------------|
|-------------------------------------------------------------|
|-------------------------------------------------------------|

|--------------------------------------------------------------------|
|-19-16-1516-19-16-151619-15--------------19-16-1516-19-16-151619-15-|
|---------------------------14-19-14/17\14---------------------------|
|--------------------------------------------------------------------|
|--------------------------------------------------------------------|
|--------------------------------------------------------------------|

(I probably messed up a bit here at the end to 
but the whole solo is 90% correct)
|----------------------------------------------23-|
|---151315--1916151619151619\15\9--152219161516---|
|-14------14---------------------14---------------|
|-------------------------------------------------|
|-------------------------------------------------|
|-------------------------------------------------|

REST OF BRIDGE
|-------------------|
|-------------------|
|-------------------|
|-------------------|
|-------------------|
|-5-3-3-6-3-3-5-3-5-| X4
  . . . . . . . . .

|-------------------|
|-------------------|
|-------------------|
|-------------------|
|-------------------|
|-5-3-3-6-3-3-5-3-5-| X4

Play PREVERSE/PRECHORUS X4

Play Chorus X4

Play INTERLUDE X4
            

comments powered by Disqus
↑ Back to top | Stone Sour Tabs for Hell And Consequences. Lyrics for acoustic guitar and electric guitar. Tablatures and chords are parodies/interpretations of the original songs. You may use it for private study, scholarship, research or language learning purposes only