» » »

Stone Sour, Hell And Consequences Tabs (ver.1)

Artists:  A B C D E F G H I J K L M N O P Q R S T U V W X Y Z # 

Hell And Consequences Tabs (ver.1)

Stone Sour Tabs
Rating:
0/5 (0 votes)
Hard to play? Try these video lessons and learn fast.
                
Stone Sour                Guitar 1 (B,F#,B,E,G#,C#)
Come What(Ever) May       Guitar 2 (B,F#,B,E,G#,C#)
Hell & Consequences

    [Intro]

 (Both Guitars)
C#---------------------|
G#---------------------|  x4
E----------------------|
B--\-5-3-0-6-3-0-5-3---|
F#-\-5-3-0-6-3-0-5-3---|
B--\-5-3-0-6-3-0-5-3---|

(Guitar 1)                     (Guitar 2)
C#--------------------        C#------------------|
G#--------------------        G#------------------|
E--------------------- x4     E-------------------| x4
B---5-3-0-6-3-0-5-3---        B--5-3-0-6-3-0-5-3--|
F#--5-3-0-6-3-0-5-3---        F#------------------|
B---5-3-0-6-3-0-5-3---        B-------------------|
PM  . . . . . . . .           PM . . . . . . . .

(Both Guitars)
C#---------------|
G#---------------|
E----------------| x4
B-00000-0000-1---|
F#00000-0000-1---|
B-00000-0000-1---|
PM..... ....

   [Verse]

(Both Guitars)
C#-----------------|
G#-----------------|
E------------------| x8
B-5-3-0-6-3-0-5-3--|
F#5-3-0-6-3-0-5-3--|
B-5-3-0-6-3-0-5-3--|


 [Pre-Chorus]

(Both Guitars)
C#---------------|
G#---------------|
E----------------| x4
B-00000-0000-1---|
F#00000-0000-1---|
B-00000-0000-1---|
PM..... ....


 [Chorus]

(Guitar 1)                         (Guitar 2)
C#--------------------------      C#---8--8-8---|
G#--------------------------      G#-88-88-8-8--|
E--------------------------- x2   E-------------| (Repeat throughout
B-3-3---1-1---5-5---10-10---      B-------------|      Chorus)
F#3-3---1-1---5-5---10-10---      F#------------|
B-3-3---1-1---5-5---10-10---      B-------------|


 [Pre-Verse]

(Both Guitars)
C#-------------------------------|
G#-------------------------------|
E--------------------------------| x2
B--6p3-3h5-3p0-000-3-0-0-0-3h5---|
F#-6p3-3h5-3p0-000-3-0-0-0-3h5---|
B--6p3-3h5-3p0-000-3-0-0-0-3h5---|
PM             ...   .   .

 [2nd Verse]

(Both Guitars)
C#-----------------|
G#-----------------|
E------------------| x8
B-5-3-0-6-3-0-5-3--|
F#5-3-0-6-3-0-5-3--|
B-5-3-0-6-3-0-5-3--|


 [Pre-Chorus]

(Both Guitars)
C#---------------|
G#---------------|
E----------------| x4
B-00000-0000-1---|
F#00000-0000-1---|
B-00000-0000-1---|
PM..... ....

[Chorus]

(Guitar 1)                         (Guitar 2)
C#--------------------------      C#---8--8-8---|
G#--------------------------      G#-88-88-8-8--|
E--------------------------- x2   E-------------| (Repeat throughout
B-3-3---1-1---5-5---10-10---      B-------------|      Chorus)
F#3-3---1-1---5-5---10-10---      F#------------|
B-3-3---1-1---5-5---10-10---      B-------------|


[Solo]

(Guitar 2)
C#-----------------|
G#-----------------|
E------------------|
B-5-3-0-6-3-0-5-3--|
F#5-3-0-6-3-0-5-3--|
B-5-3-0-6-3-0-5-3--|

(Guitar 1)

C#-10h11h13/15--------------------------|
G#------------13-15--13-15-----13/15~~--|
E------------------14-----14-13---------|
B---------------------------------------|
F#--------------------------------------|
B---------------------------------------|

C#---------------------------------------------------|
G#-------------------------------161820-201816-------|
E-/17-15-14/15/17/15/14~~--141719-------------19~~---|
B----------------------------------------------------|
F#---------------------------------------------------|
B----------------------------------------------------|

C#-----201716------171615--------------------------|
G#-----------181615------161513--------------------|
E-14h15------------------------141312-11/12/11~~---|
B--------------------------------------------------|
F#-------------------------------------------------|
B--------------------------------------------------|

C#--------------------------------------------------|
G#-/18-16--15/16/18/16/15--16/15--13/15-15-15/10----|
E---------------------------------------------------|
B---------------------------------------------------|
F#--------------------------------------------------|
B---------------------------------------------------|

C#---------------------------------|
G#-/18-16--15/16/18/16/15--16/15---|
E----------------------------------|
B----------------------------------|
F#---------------------------------|
B----------------------------------|

C#------------------161720/22-22-22-22-22--|
G#------------151618-----------------------|
E-------131417-----------------------------|
B-131517-----------------------------------|
F#-----------------------------------------|
B------------------------------------------|


[3rd Verse]

(Both Guitars)
C#-----------------|
G#-----------------|
E------------------| x8
B-5-3-0-6-3-0-5-3--|
F#5-3-0-6-3-0-5-3--|
B-5-3-0-6-3-0-5-3--|


[Pre-Chorus]

(Both Guitars)
C#---------------|
G#---------------|
E----------------| x4
B-00000-0000-1---|
F#00000-0000-1---|
B-00000-0000-1---|
PM..... ....


[Last Chorus]

(Guitar 1)                         (Guitar 2)
C#--------------------------      C#---8--8-8---|
G#--------------------------      G#-88-88-8-8--|
E--------------------------- x4   E-------------| (Repeat throughout
B-3-3---1-1---5-5---10-10---      B-------------|      Chorus)
F#3-3---1-1---5-5---10-10---      F#------------|
B-3-3---1-1---5-5---10-10---      B-------------|


[Ending]

(Both Guitars)
C#-------------------------------|
G#-------------------------------|
E--------------------------------| x4
B--6p3-3h5-3p0-000-3-0-0-0-3h5---|
F#-6p3-3h5-3p0-000-3-0-0-0-3h5---|
B--6p3-3h5-3p0-000-3-0-0-0-3h5---|
PM             ...   .   .
            

comments powered by Disqus
↑ Back to top | Stone Sour Tabs for Hell And Consequences. Lyrics for acoustic guitar and electric guitar. Tablatures and chords are parodies/interpretations of the original songs. You may use it for private study, scholarship, research or language learning purposes only