>
 >
Digital Did You Tell

Digital Did You Tell Bass Tabs

Stone  Sour - Digital Did You Tell chords, tabs, tablatures, lyrics

Guitar lessons | Add/correct | Request | Top 50 tabs Artists:  A B C D E F G H I J K L M N O P Q R S T U V W X Y Z 0-9

Digital Did You Tell Bass Tabs – Stone Sour

CD, Sheet music, Poster

Do you like Digital Did You Tell? Share with your friends now
Bass Tabs
-------------------------------------------------------------------------------
			     DIGITAL (DID YOU TELL) - Stone Sour.
-------------------------------------------------------------------------------






Tuning: Drop C.





Intro [00:00]

F|------------------------------------------------------------------|
C|------------------------------------------------------------------|
G|--------------------------------------------------------10--------|
C|--12\--000-12-14-12---000-12-14-15---000-12-14-12---000----12-12--|

F|------------------|
C|------------------|
G|------------------|
C|--8(x16)--5(x16)--|

F|-------------------------------------------------------------|
C|-------------------------------------------------------------|
G|---------------------------------------------------10--------|
C|--000-12-14-12---000-12-14-15---000-12-14-12---000----12-12--|

F|------------------|
C|------------------|
G|------------------|
C|--8(x16)--5(x16)--|



Verse [00:21]

F|-----------------------------------------------------------|
C|-----------------------------------------------------------|
G|-----------------------------------------------------------|     [x4]
C|--0(x4)-12(x4)-15(x4)-11(x3)---0(x4)-12(x4)-17(x4)-14(x3)--|



Chorus [00:41]

F|-------------------------------------------------------------|
C|-------------------------------------------------------------|
G|---------------------------------------------------10--------|
C|--000-12-14-12---000-12-14-15---000-12-14-12---000----12-12--|

F|------------------|
C|------------------|
G|------------------|
C|--8(x16)--5(x16)--|

F|-------------------------------------------------------------|
C|-------------------------------------------------------------|
G|---------------------------------------------------10--------|
C|--000-12-14-12---000-12-14-15---000-12-14-12---000----12-12--|

F|------------------|
C|------------------|
G|------------------|
C|--8(x16)--5(x16)--|

F|----------------------0-2-0--------|
C|----------------0-2-3-------3-2-0--|
G|----------0-1-3--------------------|
C|--0-2-3-5--------------------------|



Verse [01:05]

F|------------------------------------------------------------|
C|------------------------------------------------------------|
G|------------------------------------------------------------|     [x4]
C|--\0(x4)-12(x4)-15(x4)-11(x3)---0(x4)-12(x4)-17(x4)-14(x3)--|



Chorus [01:26]

F|-------------------------------------------------------------|
C|-------------------------------------------------------------|
G|---------------------------------------------------10--------|
C|--000-12-14-12---000-12-14-15---000-12-14-12---000----12-12--|

F|------------------|
C|------------------|
G|------------------|
C|--8(x16)--5(x16)--|

F|-------------------------------------------------------------|
C|-------------------------------------------------------------|
G|---------------------------------------------------10--------|
C|--000-12-14-12---000-12-14-15---000-12-14-12---000----12-12--|

F|------------------|
C|------------------|
G|------------------|
C|--8(x16)--5(x16)--|



Bridge [01:46]

F|-----------------------------------------------------------|
C|--0(x8)-2(x8)-3(x8)-5(x4)-3(x4)----------------------------|
G|--------------------------------1(x8)-0(x8)----------------|     [x2]
C|--------------------------------------------5(x8)-/10(x8)--|



Solo [02:07]

F|--------------|
C|--------------|
G|--------------|
C|--000----000--|

F|----------------------------------------------------------------|
C|------2-3-5-3-2-0-------2---------------------------------------|
G|------------------3-2-3----1(x8)-5(x4)-3(x4)--------------------|
C|--\00----------------------------------------5(x8)-7(x4)-8(x4)--|

F|-----------------------------------------------------|
C|-----2-3-5-3-2-0-------2--------2-3-5-3-2-0----------|
G|-----------------3-2-3----------------------3-2-3----|
C|--00-------------------------00-------------------5--|

F|----------------------------------------------------------|
C|------2-3-5-3-2-0-------2---------------------------------|
G|------------------3-2-3----5(x8)-3(x8)-7(x8)-3(x4)-2(x4)--|
C|--\00-----------------------------------------------------|


[02:37]

F|------------------------------|
C|----0-13-12-------------------|
G|------------10-9-6-5-0-3-5-6--|     [x3]
C|--0---------------------------|

F|----------------------0-2-0--------|
C|--------------0-2-0-3-------3-2-0--|
G|--------0-0-3----------------------|
C|--0-2-3----------------------------|


[02:42]

F|-----------------------------------------------------------|
C|--0(x8)-2(x8)-3(x8)-5(x4)-3(x4)----------------------------|
G|--------------------------------1(x8)-0(x8)----------------|     [x2]
C|--------------------------------------------5(x8)-/10(x8)--|



Chorus [03:03]

F|-------------------------------------------------------------|
C|-------------------------------------------------------------|
G|---------------------------------------------------10--------|
C|--000-12-14-12---000-12-14-15---000-12-14-12---000----12-12--|

F|------------------|
C|------------------|
G|------------------|
C|--8(x16)--5(x16)--|

F|-------------------------------------------------------------|
C|-------------------------------------------------------------|
G|---------------------------------------------------10--------|
C|--000-12-14-12---000-12-14-15---000-12-14-12---000----12-12--|

F|------------------|
C|------------------|
G|------------------|
C|--8(x16)--5(x16)--|


[03:23]

F|--------------------------------------|
C|--------------------------------------|
G|--------0-1-0---3--------1-0---3-0-1--|
C|--0-2-0-------5------0-3-----5--------|

F|--------------------------------------|
C|---------------------0-2-0---0-2-0----|
G|--------0-1-0---3----------3-------3--|
C|--0-2-0-------5-----------------------|

F|------------------------------------------------------------------|
C|------------------------------------------------------------------|
G|--------0-1-0---3--------1-0---3-0-1----1(x16)--------------------|
C|--0-2-0-------5------0-3-----5-----------------5(x8)-3(x4)-2(x4)--|

F|--------------------------------------|
C|--------------------------------------|
G|--------0-1-0---3--------1-0---3-0-1--|
C|--0-2-0-------5------0-3-----5--------|

F|--------------------------------------|
C|---------------------0-2-0---0-2-0----|
G|--------0-1-0---3----------3-------3--|
C|--0-2-0-------5-----------------------|

F|------------------------------------------------------------------|
C|------------------------------------------------------------------|
G|--------0-1-0---3--------1-0---3-0-1----1(x16)--------------------|
C|--0-2-0-------5------0-3-----5-----------------5(x8)-3(x4)-2(x4)--|

F|----------------------------------------------------------|
C|----------------------------------------------------------|
G|---------------------------------------------------10-----|
C|--000-12-14-12---000-12-14-15---000-12-14-12---000----12--|





| /  slide up
| \  slide down
| h  hammer-on
| p  pull-off
| ~  vibrato
| +  harmonic
| x  Mute note
===============================================================================





Comments


Popular Stone Sour tabs & chords
Absolute Zero Bass Tabs
Reborn Bass Tabs
Say Youll Haunt Me 4 Bass Tabs
Take A Number 4 Bass Tabs
This Time Bass Tabs
The Conflagration 1 Chords
Zzyzx Rd 4 Chords
30-30/150 1 Tabs
Reborn 2 Tabs
Say Youll Haunt Me Tabs


Song lyrics



↑ Back to top | Tablatures and chords are parodies/interpretations of the original songs. You may use it for private study, scholarship, research or language learning purposes only
© 2014 AZChords.com Contact us | Privacy policy | DMCA | Add/correct tabs | Request tabs | Top 50 tabs