» » »

Stone Sour, Botherr Tabs (ver.1)

Artists:  A B C D E F G H I J K L M N O P Q R S T U V W X Y Z # 

Botherr Tabs (ver.1)

Stone Sour Tabs
Rating:
0/5 (0 votes)
Botherr lessons Tabs too difficult? Try these video lessons and learn fast
                Stone Sour 
Bother
**Capo on 6th Fret**
Riff 1
E-0-------------------------------|------0-------------------------|
B-1-----------0---------0h1p0-----|------1-----0---------0h1p0-----|
G-2-----------0---------------2---|------2-----0---------------2---|
D-2-----------2-----------------2-|------------2-----------------2-|
A-0-----------2-------------------|0-----------2-------------------|
E---------------------------------|--------------------------------|
         Play x1                           Play x3                              
Verse
E-0-------------------------------|0-------------------------------|
B-1-----------0-------------------|1-----------0-------------------|
G-2-----------0-------------------|2-----------0-------------------|
D-2-----------2-------------------|2-----------2-------------------|
A-0-----------2-------------------|0-----------2-------------------|
E---------------------------------|--------------------------------|
                                                                                

E-0-------------------------------|0-------------------------------|
B-1-----------3-------------------|1-----------0-----0h1p0---------|
G-0-----------0-------------------|2-----------0-----------2p0-----|
D-2-----------0-------------------|2-----------2---------------2p0-|
A-3-----------2-------------------|0-----------2-------------------|
E-------------3-------------------|--------------------------------|
                                                                                

E-0-------------------------------|0-------------------------------|
B-1-----------0-------------------|1-----------0-------------------|
G-2-----------0-------------------|2-----------0-------------------|
D-2-----------2-------------------|2-----------2-------------------|
A-0-----------2-------------------|0-----------2-------------------|
E---------------------------------|--------------------------------|
                                                                                

E-0-------------------------------|0-----------0-------------------|
B-1-----------3-------------------|1-----------0-------------------|
G-0-----------0-------------------|2-----------0-------------------|
D-2-----------0-------------------|2-----------2-------------------|
A-3-----------2-------------------|0-----------2-------------------|
E-------------3-------------------|--------------------------------|
                                                                                
Chorus
E-0-------------------------------|--------------------------------|
B-1-------------------------------|3-------------------------------|
G-2-------------------------------|0-------------------------------|
D-2-------------------------------|0-------------------------------|
A-0-------------------------------|2-------------------------------|
E---------------------------------|3-------------------------------|
                                                                                

E-0-------------------------------|0-------------------------------|
B-1-------------------------------|0-------------------------------|
G-2-------------------------------|0-------------------------------|
D-2-------------------------------|2-------------------------------|
A-0-------------------------------|2-------------------------------|
E---------------------------------|0-------------------------------|
              

E-0-------------------------------|--------------------------------|
B-1-------------------------------|3-------------------------------|
G-2-------------------------------|0-------------------------------|
D-2-------------------------------|0-------------------------------|
A-0-------------------------------|2-------------------------------|
E---------------------------------|3-------------------------------|
                                                                                

E-0-----------0-------------------|------------0-------------------|
B-1-----------1-------------------|3-----------0-------------------|
G-2-----------0-------------------|0-----------0-------------------|
D-2-----------2-------------------|0-----------2-------------------|
A-0-----------3-------------------|2-----------2-------------------|
E---------------------------------|3-----------0-------------------|
                                                                                
Verse Part 2
E-0-------------------------------|0-------------------------------|
B-1-------------------------------|1-------------------------------|
G-2-------------------------------|0-------------------------------|
D-2-------------------------------|2-------------------------------|
A-0-------------------------------|3-------------------------------|
E---------------------------------|--------------------------------|
                                                                                

E-3-------------------------------|0-------------------------------|
B-3-------------------------------|0-------------------------------|
G-0-------------------------------|0-------------------------------|
D-0-------------------------------|2-------------------------------|
A-2-------------------------------|2-------------------------------|
E-3-------------------------------|0-------------------------------|
                                                                                
Solo
E---------------------------------|--------------------------------|
B-------------3p1-1---------------|--------1h3p1-------------------|
G----------------4----------------|----2h4-------------2p0-2---2p0-|
D---------------------------------|--------------------------------|
A---------------------------------|--------------------------------|
E---------------------------------|--------------------------------|
  1   +   2   +   3   +   4   +    1   +   2   +   3   +   4   +                

E---------0-----------------------|--------------------------------|
B---------1-----------------------|----------------------------2h4-|
G-2-------2---------------2-p-0---|------------------------0h2-----|
D---------2-----------2h5---------|2-------------------0h2---------|
A---------------------------------|--------------------------------|
E---------------------------------|--------------------------------|
  1   +   2   +   3   +   4   +    1   +   2   +   3   +   4   +                

E---------0-----------------------|--------------------------------|
B-0h1-----1-3^3-----3p1---1-------|------------------3p1---1---0---|
G---------2-------------4---------|----------------------4---------|
D---------2-----------------------|--------------------------------|
A---------------------------------|--------------------------------|
E---------------------------------|--------------------------------|
  1   +   2   +   3   +   4   +    1   +   2   +   3   +   4   +
            

comments powered by Disqus
↑ Back to top | Stone Sour Tabs for Botherr. Lyrics for acoustic guitar and electric guitar. Tablatures and chords are parodies/interpretations of the original songs. You may use it for private study, scholarship, research or language learning purposes only