» » »

Stone Sour, Bother Tabs (ver.4)

Artists:  A B C D E F G H I J K L M N O P Q R S T U V W X Y Z # 

Bother Tabs (ver.4)

Stone Sour Tabs
Rating:
0/5 (0 votes)
Bother lessons Tabs too difficult? Try these video lessons and learn fast
                Stone Sour - Bother
Correct Way!!
Tuning:Half Step Down: Low to High (Eb Ab Db Gb Bb Eb)

``Intro`` (0:00,0:54,2:19)

|----7-----------------------7---------------------7-------------
|----7h8---7---7h8p7---------8---7---7h8p7---------8---7---7h8p7-
|----7-----7---------9-7-----7---7---------9-7-----7---7---------
|----7h9---7-------------9-------7-------------9-------7---------
|----7-----7-------------7-------7-------------7-------7---------
|----------------------------------------------------------------

|---------7------
|---------8---7--
|-9-7-----7---7--
|-----9---9---7--
|-----7-------7--
|----------------

``Verses 1 and 3``(0:11,2:30)
  
|--7-----------7--------------------------------------------------
|--7h8---7-----7h8---7-------------------------------8---7---7h8p7
|--7-----7-----7-----7-----------7----7--7--x--x-----7---7--------
|--7h9---7-----7h9---7-----7--7--7----7--7--x--x-----9---7--------
|--7-----7-----7-----7-----5--5--5----5--5--x--x-----7---7--------
|-----------------------------------------------------------------

|-----------------------------------------------------------------
|--------------7----7h8---7----------------------8--8--8---8------
|-9-7---7--9---7----7-----7-----7--7--7----7--7--7--7--7---7--x--x
|-----9-7--9---7----7h9---7-----7--7--7----7--7--5--5--5---5--x--x
|-----7----7---7----7-----7-----5--5--5----5--5--5--5--5---5--x--x
|----------0------------------------------------------------------

|--------------
|--------------
|--7----7--7---
|--7----7--7--x
|--9----9--9--x
|--------------

``Chorus``(0:32,1:36,2:51)
|-----------------------------------------------------------------
|---------7h8-----7-----8-----------------------------------8-----
|---------7-------7-----7-----x------9--9--x--x--x----x--x-----9--
|-9-------7h9-----7-----9-----x------9--9--x--x--x----x--x-----9--
|-7-------7-------7-----7-----x------9--9--x--x--x----x--x-----7--
|-----------------------------x--7---7--7--x--x--x----x--x--------

|--------------------------------------------------------------------
|-----------7h8---7--------------------------------------------------
|--9----9---7-----7------5----5----5--5--5--------7---7--7----7--7---
|--9----9---7h9---7------5----5----5--5--5--------7---7--7----7--7---
|--7----7---7-----7------3----3----3--3--3--5--5--5---5--5----5--5--7
|--------------------------------------------------------------------

``Verse 2`` (1:04)
|--7----------------------------------------------------------------
|--7h8---7------7h8---7----------------------------8---7---7h8p7----
|--7-----7------7-----7-----------7----7--7--x--x--7---7---------9-7
|--7h9---7------7h9---7-----7--7--7----7--7--x--x--9---7------------
|--7-----7------7-----7-----5--5--5----5--5--x--x--7---7------------
|-------------------------------------------------------------------

|--------------------------------------------------------------------
|-----------7-----7h8---7-----------------------8--8--8--------------
|----7--9---7-----7-----7----7----7--7----7--7--7--7--7--x--x--7----7
|-9--7--9---7-----7h9---7----7----7--7----7--7--5--5--5--x--x--7----7
|-7-----7---7-----7-----7----5----5--5----5--5--5--5--5--x--x--5----5
|--------------------------------------------------------------------

|-------
|-------
|-------
|--7/9--
|--5/7--
|-------

``Pre-Chorus`` (1:26)
|--7---7--7-----7--7-----------------------------------------------
|--8---8--8-----8--8--8--------------------------------------------
|--7---7--7-----7--7--7--x--8---8--8-----8--8-----8--x--x--5---5--5
|--9---9--9--9--9--9--9--x--9---9--9--x--9--9-----9--x--x--5---5--5
|--7---7--7--7--7--7--7--x--9---9--9--x--9--9-----9--x--x--3---3--3
|---------------------------7---7--7--x--7--7-----7----------------

|--------------------------------------------
|--------------------------------------------
|--5-5-5--5--7-7--7--7--x-7-7----7--7--------
|--5-5-5--5--7-7--7--7--x-7-7----7--7--9--9--
|--3-3-3--3--5-5--5--5--x-5-5----5--5--7--7--
|--------------------------------------------

``Solo``(1:58)
|---------------------------------------------------------------------
|-------10p8p7--8~~~~~----7h8p7---------------------------------------
|---------------------7------------9~~~~~/7-----9~~~~~~~-----7--------
|--9-----------------------------------------------------7h9---7/9~~~~
|--7------------------------------------------------------------------
|---------------------------------------------------------------------

|------------------------10---------------------------------------
|---------------7h9~~~~~-10^b--10r----8--10p\8p\3p\0--------------
|-----------------------------------------------------9---9~~~~---
|-----5h7-7/9-----------------------------------------------------
|---5-------------------------------------------------------------
|-----------------------------------------------------------------

|--------------------
|--------------------
|--7h9p7h9~~~~~~~~~--
|--------------------
|--------------------
|--------------------

``Outro``(3:12)
|--------------------------------------------------------------
|---8--8--8---7h8---7----7h8-----------------------------------
|---7--7--7---7-----7----7-------8--8--8--8--8----8--8--8------
|---9--9--9---7h9---7----7h9-----9--9--9--9--9----9--9--9--9--9
|---7--7--7---7-----5----7-------9--9--9--9--9----9--9--9--7--7
|--------------------------------7--7--7--7--7----7--7--7------

|---------------------------------------------------------------------
|--7h8--7h8--7h8-----7h8-----7--7--7--7---------------------------7---
|--7----7----7-------7-------7--7--7--7---------5----5--5--7--7---7---
|--7h9--7h9--7h9--9--7h9--9--7--7--7--7---9\5---5----5--5--7--7---7---
|--7----7----7----7--7----7--5--5--5--5---7\3---3----3--3--5--5---5---
|----------------------------0----------------------------------------

|----7-----------------------7---------------------7-------------
|----7h8---7---7h8p7---------8---7---7h8p7---------8---7---7h8p7-
|----7-----7---------9-7-----7---7---------9-7-----7---7---------
|----7h9---7-------------9-------7-------------9-------7---------
|----7-----7-------------7-------7-------------7-------7---------
|----------------------------------------------------------------

|---------7--------~~7-~~7
|---------8---7----~~8-~~8
|-9-7-----7---7----~~7-~~7
|-----9-------7----~~9-~~9
|-----7-------7----~~7-~~7
|-------------------------

Order:
Intro     x1
Verse 1   x1
Chorus    x1
Intro     x1
Verse 2   x1
Interlude x1
Chorus    x1
Solo      x1
Intro     x1
Chorus    x1
Outro     x1
            

comments powered by Disqus
↑ Back to top | Stone Sour Tabs for Bother. Lyrics for acoustic guitar and electric guitar. Tablatures and chords are parodies/interpretations of the original songs. You may use it for private study, scholarship, research or language learning purposes only